tablaturas, partituras y acordes para guitarra
Busca por banda/artista:
 
y/o título de la canción:
A B C D E F G H I J K L M N O P Q R S T U V W X Y Z 0 1 2 3 4 5 6 7 8 9 / Top 100 tabs
Categorías
Usuarios
usuario:
Darse de alta
password:
Artistas más visitados
Publicidad
TOP acordes y tablaturas de Rob zombie


Estás en: Inicio > Letra R > Acordes y tablaturas de Rob zombie > Two lane blacktop
Two lane blacktop
de Rob zombie
Puntúa este acorde/tab:      
(0.7/5)
Reportar este acorde/tab
  Añadir a tus favoritos
  Imprimir
/ = slide up
 = slide down
#*= artifical harmonic
* = palm mute
h = hammer
p = pull off
b = bend

standard tuning (EADGBe)

Intro
e | --------    ----------------- | 
B | --------    --7-(b9)(b9)11-(b9)7-(b9) |  (guessing)
G | --------    ----------------- |  on 4th time
D | --4-66--    ----------------- | 
A | --4-66--    ----------------- | 
E | --2-44--    ----------------- | 

(do chorus once)

Verse

e | ------------------ | 
B | ------------------ | 
G | ------------------ | 
D | --4-6------6-9-- | 
A--4-6(x16)-6-9-- | 
E | --2-4------4-7-- | 
     *

Chorus

(guitar 1)
e | ---------------- | 
B | ---------------- | 
G | ---------------- | 
D | --4-66666666---- | x4
A | --4-66666666---- | 
E | --2-44444444---- | 
      *******

(guitar 2)

e | -------------    --------------- | 
B | -------------    --666-555-444-- | 
G | --6/88888888-    --555-444-333-- |  on 4th time
D | --4/66666666-    --------------- | 
A | -------------    --------------- | 
E | -------------    --------------- | 

solo thingy

(fill under solo)(guitar 1)
e | ------------------ | 
B | ------------------ | 
G | ------------------ | 
D | --44/6--6-666666-- | 
A--44/6--6-666666-- | 
e | --22/4--4-444444-- | 
           ******

(solo)(guitar 2)
e | --------------------------------------------------------------- | 
B | --9h12p9h12p(b9)12h14p12h14p12-9h11p9h11p(b9)12b--12-11-(b9)---(b9)11b- | 
G | ------------------------------------------------------11------- | 
D | --------------------------------------------------------------- | 
A | --------------------------------------------------------------- | 
E | --------------------------------------------------------------- | 

e | ------------------------------------------------------------------- | 
B | --9h12p9h12p(b9)12h14p12h14p12-9h11p9h11p(b9)12b--12*-(b9)12*-(b9)---(b9)11b- | 
G | ----------------------------------------------------------11------- | 
D | ------------------------------------------------------------------- | 
A | ------------------------------------------------------------------- | 
E | ------------------------------------------------------------------- |  		   
AcordesyTabs.com © 2008 Acordes y Tablaturas para guitarra. Tabs and Chords for guitar. Aviso Legal - Contacto
El uso de este sitio está sujeto a la aceptación de los términos y condiciones (16 usuarios online)