tablaturas, partituras y acordes para guitarra
Busca por banda/artista:
 
y/o título de la canción:
A B C D E F G H I J K L M N O P Q R S T U V W X Y Z 0 1 2 3 4 5 6 7 8 9 / Top 100 tabs
Categorías
Usuarios
usuario:
Darse de alta
password:
Artistas más visitados
Publicidad
TOP acordes y tablaturas de Rammstein


Keine lust
de Rammstein
Puntúa este acorde/tab:      
(1/5)
Reportar este acorde/tab
  Añadir a tus favoritos
  Imprimir
Intro
E|---------------------------------|
B|---------------------------------| 
G|---------------------------------|  DUAS
D|-(3)-----(3)-----(3)-----(3)-----|  /VEZES
A|-(3)-----(3)-----(3)-----(3)-8-6-| /
D|-(3)-6h8-(3)-6h8-(3)-6h8-(3)-----|/

Letra
E|-----|
B|-----|
G|-----|
D|-(3)-|
A|-(3)-|
D|-(3)-|

E|-----------------------------------------|
B|-----------------------------------------| 
G|-----------------------------------------|  DUAS
D|-(3)-------(3)-------(3)-------(3)-------|  /VEZES
A|-(3)-------(3)-8h6h8-(3)-------(3)-8h6h8-| /
D|-(3)-8h6h8-(3)-------(3)-8h6h8-(3)-------|/

Refrão
E|-----------------|
B|-----------------| 
G|-----------------|  DUAS
D|-(1)-(3)-(6)-(8)-|  /VEZES
A|-(1)-(3)-(6)-(8)-| /
D|-(1)-(3)-(6)-(8)-|/

Intro
E|---------------------------------|
B|---------------------------------|
G|---------------------------------|
D|-(3)-----(3)-----(3)-----(3)-----|
A|-(3)-----(3)-----(3)-----(3)-8-6-|
D|-(3)-6h8-(3)-6h8-(3)-6h8-(3)-----|

Letra
E|-----|
B|-----|
G|-----|
D|-(3)-|
A|-(3)-|
D|-(3)-|

E|-----------------------------------------|
B|-----------------------------------------|
G|-----------------------------------------|
D|-(3)-------(3)-------(3)-------(3)-------|
A|-(3)-------(3)-8h6h8-(3)-------(3)-8h6h8-|
D|-(3)-8h6h8-(3)-------(3)-8h6h8-(3)-------|

Refrão
E|-----------------|
B|-----------------| 
G|-----------------|  QUATRO
D|-(1)-(3)-(6)-(8)-|  /VEZES
A|-(1)-(3)-(6)-(8)-| /
D|-(1)-(3)-(6)-(8)-|/

Ponte
E|-------------------|
B|-------------------| 
G|-------------------|  DUAS
D|-1---3---6---8---6-|  /VEZES
A|-1---3---6---8---6-| /
D|-1---3---6---8---6-|/

Solo(Não tirei XD)
E|-----|
B|-----|
G|-----|
D|-(3)-|
A|-(3)-|
D|-(3)-|

Ponte
E|-------------------|
B|-------------------| 
G|-------------------|  TRÊS
D|-1---3---6---8---6-|  /VEZES
A|-1---3---6---8---6-| /
D|-1---3---6---8---6-|/

Parte Final
E|---------------------------------|
B|---------------------------------| 
G|---------------------------------|  DUAS
D|-(3)-----(3)-----(3)-----(3)-----|  /VEZES
A|-(3)-----(3)-----(3)-----(3)-8-6-| /
D|-(3)-6h8-(3)-6h8-(3)-6h8-(3)-----|/		   
AcordesyTabs.com © 2008 Acordes y Tablaturas para guitarra. Tabs and Chords for guitar. Aviso Legal - Contacto
El uso de este sitio está sujeto a la aceptación de los términos y condiciones (37 usuarios online)