tablaturas, partituras y acordes para guitarra
Busca por banda/artista:
 
y/o título de la canción:
A B C D E F G H I J K L M N O P Q R S T U V W X Y Z 0 1 2 3 4 5 6 7 8 9 / Top 100 tabs
Categorías
Usuarios
usuario:
Darse de alta
password:
Artistas más visitados
Publicidad
TOP acordes y tablaturas de Atreyu


Estás en: Inicio > Letra A > Acordes y tablaturas de Atreyu > Someones standing on my chest
Someones standing on my chest
de Atreyu
Puntúa este acorde/tab:      
(0.5/5)
Reportar este acorde/tab
  Añadir a tus favoritos
  Imprimir
- 
Tuning - CGCF
Tabbed By - XTheAgonySceneX (XxAsILayDyingxX@Hotmail.Com ) 

Intro-Guitar-No Bass 
Verse 
G | ---------------------------------------------------- |  
D | ---------------------------------------------------- |  
A | --------------------5---5/7------------------------- |  
E | 3-1-0-0--000-000-000-000---10-101010-10-101010-8-888 |  

G | ---------------------------------------------------- |  
D | ---------------------------------------------------- |  
A | --------------------5---5/7-10-1010108-7----------- |  
E | 3-1-0-0--000-000-000-000---------------------------- |  

G | ---------------------------------------------------- |  
D | ---------------------------------------------------- |  
A | 7/8-------------5/7------------------------------- |  
E | -----0-0--0-0--0-0---10-101010-10-101010-8-888------ |  

G | ---------------------------------------------------- |  
D | ---------------------------------------------------- |  
A | --------------------5---5/7-10-1010108-7----------- |  
E | 3-1-0-0--000-000-000-000---------------------------- |  

G | ---------------------------------------------------- |  
D | ---------------------------------------------------- |  
A | 7/8-5~-------------------------------------------- |  
E | ---------------------------------------------------- |  

Chorus 
G | ---------------------------------------------------- |  
D | ---------------------------------------------------- | x4 
A | -------5-------8-------5---------------------- |  
E | 000-000---000-000---000-000---888-8-88-333-3-2------ |  

Back to Verse 
Skip Chorus and go to Bridge 

Pre Bridge - Pick slide 

Bridge 
G | ------5--- | -- | -------5------------------------------ |  
D | --------4- | x3 | ---------4---------------------------- | x2 
A | 3-6-3----- | -- | -3-6-3-------------------------------- |  
E | ---------- | -- | -------------------------------------- |  

Now its just Bass with the drums 
G | ---------------------------------------------------- |  
D | ---------------------------------------------------- | x7 
A | ------5--------------------------------------------- |  
E | 0-3-0---6------------------------------------------- |  

then back to... 
G | ------5--- | -- | -------5------------------------------ |  
D | --------4- | x3 | ---------4---------------------------- | x2 
A | 3-6-3----- | -- | -3-6-3-------------------------------- |  
E | ---------- | -- | -------------------------------------- |  

Second half of bridge 

G | ----------- | -- | ------------------------------------- |  
D | ----------- | x4 | ------------------------------------- |  
A | ----------- | -- | ------------------------------------- |  
E | 0-let-ring- | -- | 0000000000000000--------------------- |  

Post Bridge 

G | ---------------------------------------------------- |  
D | ---------------------------------------------------- | x4 
A | ---------------------------------------------------- |  
E | 00000000--33333333--88888888--33332222-------------- |  

Outro 

G | ---------------------------------------------------- |  
D | ---------------------------------------------------- |  
A | ---------------------------------------------------- |  
E | 0~-8~-7~-3-2---------------------------------------- |  

G | ---------------------------------------------------- |  
D | ---------------------------------------------------- |  
A | ---------/10-8-7-7/8-7-5---------------------------- |  
E | 0~-8~-7~-------------------------------------------- |  

Each not is a triplet 

G | ---------------------------------------------------- |  
D | ---------------------------------------------------- | x2 
A | ---------------------------------------------------- |  
E | 0000-0000--8888-8888--7777-7777--3333-3333---------- |  

G | -------------------------------------------------------- |  
D | -------------------------------------------------------- |  
A | -----5/7/8/10------5/7/8/10------5/7/8/10------108/8- |  
E | 0000----------8888----------7777----------3333---------- |  

G | ---------------------------------------------------- |  
D | ---------------------------------------------------- |  
A | -----5/7/8/10------5/7/8/10------5/7/8/10----------- |  
E | 0000----------8888----------7777----------3333------ |  

Not Triplets 

G | ---------------------------------------------------- |  
D | ---------------------------------------------------- |  
A | /10-8-7-7/-8--7-5-0~-------------------------------- |  
E | ---------------------------------------------------- | 
 		   
AcordesyTabs.com © 2008 Acordes y Tablaturas para guitarra. Tabs and Chords for guitar. Aviso Legal - Contacto
El uso de este sitio está sujeto a la aceptación de los términos y condiciones (23 usuarios online)