tablaturas, partituras y acordes para guitarra
Busca por banda/artista:
 
y/o título de la canción:
A B C D E F G H I J K L M N O P Q R S T U V W X Y Z 0 1 2 3 4 5 6 7 8 9 / Top 100 tabs
Categorías
Usuarios
usuario:
Darse de alta
password:
Artistas más visitados
Publicidad
TOP acordes y tablaturas de Jethro tull


Estás en: Inicio > Letra J > Acordes y tablaturas de Jethro tull > To cry you a song
To cry you a song
de Jethro tull
Puntúa este acorde/tab:      
(0.4/5)
Reportar este acorde/tab
  Añadir a tus favoritos
  Imprimir
Riff 1 
|-----------------------------------------------| 
|-----------------------------------------------| 
|-----------------------------------------------| 
|-5-4-5-----------------------------0-----------| 
|-------5-4-5-1-0-1----1--1-1-1-3---3-1-------| 
|---------------------3-------------------3-1-3-| 
 
 
|---------------------------------------------| 
|---------------------------------------------| 
|---------------------------------------------| 
|-5-4-5---------------------------0-----------| 
|-------5-4-5-1-0-1----1--1-1-3---3-1-------| 
|---------------------3-----------------3-1-3-| 
 
Riff 1 x2 
 
|--------------------------------------------------------------------| 
|--------------------------------------------------------------------| 
|------------------------------5-3-7----7-7----------------------3-2-| 
|-5-4-5--------------------3---5-3-5----5-5----10-(b9)10-----------3-2-| 
|-------5-4-5-1-0-1------3---3-1-5----5-5------------10-(b9)10---1-0-| 
|--------------------------------------------------------------------| 
 
Back to riff 1 
 
|------------------------------------------------------------------| 
|------------------------------------------------------------------| 
|-7----7-7---5----5--------------------------7-------5-5-5-----3-2-| 
|-5----5-5---5--5-5--10-10-(b9)10--------------5-------3-3-3-----3-2-| 
|-5----5-5---3------------------10-(b9)10------5---5-----3-3-----1-0-| 
|----------------------------------------3-3---3---1-------1-------| 
 
Riff 1 1x 
 
|------------------------------------------------------------------| 
|----------------------------8-8-8-8-8-8---------------------------| 
|------------------------5-3-7-7-7-7-7-7--7---5--5-3-3-------------| 
|-5-4-5------------------3-1-5-5-5-5-5-5--5---5--5-3-3-------------| 
|-------5-4-5-1-0-1--------5-5-5-5-5-5--5------3-1-1-------------| 
|---------------------1---------------------3-----------1--3-3-3-3-| 
 
 
|----------------------------------------------------------| 
|----------------------------------------------------------| 
|------------------7---5-5-3-------------------------------| 
|-5--5-4-5---------5---5-5-3--------------5--5-4-5---------| 
|----------5-4-5-5-----3-1-1---------------------5-4-5-| 
|--------------------3---------1--3-3-3-3------------------| 
 
Riff 2 4x: 
|--------------------| 
|-10-8-7-8-7-5-5-5-5-| 
|-(b9)-7-7-7-7-6-6-6-6-| 
|-11-(b9)7-5-7-7-7-7-7-| 
|--------------------| 
|--------------------| 
 
solo: 
|------------------5h8------------------------------------------------------------| 
|--------------8p6-----8^10--13^15--13^15rp10-13-10----------------------------10-| 
|-7-------7h10--------------------------------------10-12----------------10-12----| 
|---10-10-------------------------------------------------------10-12-12----------| 
|---------------------------------------------------------10/12-------------------| 
|---------------------------------------------------------------------------------| 
 
 
|-----------------------| 
|-----------------------| 
|-12^14-----------------| 
|-------10h12p10-8/10~-| 
|-----------------------| 
|-----------------------| 
 
|--------------------------------------------------------------------------------| 
|--------------------------------------------------------------------------------| 
|-12---3-5-5^7-5^7-5-3-5-3------------3-5/7-10-10-10-10-10-10-10-10/12-12-12-12-| 
|-----5---------------------0-0-3--3/5-------10-10-10-10-10-10-10-10/12----------| 
|--------------------------------------------------------------------------------| 
|--------------------------------------------------------------------------------| 
 
 
|---------------------------------------------| 
|-10------------------------------------------| 
|----12-17^18--15-17--------------------------| 
|-------16-----15----12--12-12-15-14-12-------| 
|---------------------------------------15-13-| 
|---------------------------------------------| 
 
Solo Riff: 
|-----------------------------------------------------------------| 
|------------------------------------------------------8--8-8-----| 
|-(b9)7---7----7-7-7--(b9)7---7----7-7-7--(b9)7---7-7-5---5--7--7-7--10-| 
|-(b9)7---7----7-7-7--(b9)7---7----7-7-7--(b9)7---7-5-5---5--5--5-5--10-| 
|-7-5-5-5--5-5-5-5--7-5-5-5--5-5-5-5--7-5-5-5-5-3-3-3----------8--| 
|-----------------------------------------------------------------| 
 
 
|------------------------------------------------------| 
|------------------------------------------------------| 
|-5--5-5--3-3------------------------------------------| 
|-5--5-5--3-3------------------------------------------| 
|-3--3-3--1-1-3-3/5-5---10-10-10-8-8-3-3/5-5--5--5-5-3-| 
|-------------1-1/3-3---8--8--8--6-6-1-1/3-3--3--3-3-1-| 
 
 
|---------------------------------------------------------------------------------| 
|---------------------------------------------------------------------------------| 
|-------------------------------------------------------------------11-11p(b9)------| 
|-5--5-5-3-3----------5/-11b-11b-11b-(b9)---------------11b-11b-11b(b9)11-11p(b9)------| 
|-3--3-3-1-1-3-3/5-5----------------------------9/11------------------------------| 
|------------1-1/3-3-------------------x-(b9)9/12-----------------------------------| 
 
 
|---------------------------------------------------------------------------------| 
|---------------------------------------------------------------------------------| 
|-------------------------------------------11-11(b9)------------------------------| 
|-11b-11b-11b-(b9)--------------11--11--11b(b9)11-11(b9)-5-5-5-3--------------5-5-5-3-| 
|------------------------9/11----------------------------------------3/5----------| 
|---------------x-(b9)9/12-------------------------------------x-3-3/6--------------| 
 
 
|----------------------------------------------| 
|----------------------------------------------| 
|-5-5p3----------------------------------------| 
|-5-5p3--5-5-5-3--------------5-5-5-3--5-5-5-| 
|------------------------3/5-----------5-5-5-| 
|----------------x-3-3/6-----------------------| 
 
Riff 1 1x 
 
|--------------------------------------------------------------| 
|--------------------------------------------------------------| 
|------------------------5-3-7----7-7----------------------3-2-| 
|-5-4-5------------------5-3-5----5-5----10-(b9)10-----------3-2-| 
|-------5-4-5-1-0-1----3-1-5----5-5------------10-(b9)10---1-0-| 
|---------------------1----------------------------------------| 
 
Riff 1 1x 
 
|------------------------------------------------------------------| 
|------------------------------------------------------------------| 
|-7----7-7---5----5--------------------------7-------5-5-5-----3-2-| 
|-5----5-5---5--5-5--10-10-(b9)10--------------5-------3-3-3-----3-2-| 
|-5----5-5---3------------------10-(b9)10------5---5-----3-3-----1-0-| 
|----------------------------------------3-3---3---1-------1-------| 
 
Riff 1 1x 
 
|------------------------------------------------------------------| 
|----------------------------8-8-8-8-8-8---------------------------| 
|------------------------5-3-7-7-7-7-7-7--7---5--5-3-3-------------| 
|-5-4-5------------------3-1-5-5-5-5-5-5--5---5--5-3-3-------------| 
|-------5-4-5-1-0-1--------5-5-5-5-5-5--5------3-1-1-------------| 
|---------------------1---------------------3-----------1--3-3-3-3-| 
 
 
|----------------------------------------------------------| 
|----------------------------------------------------------| 
|------------------7---5-5-3-------------------------------| 
|-5--5-4-5---------5---5-5-3--------------5--5-4-5---------| 
|----------5-4-5-5-----3-1-1---------------------5-4-5-| 
|--------------------3---------1--3-3-3-3------------------| 
 
Riff 2 4x 
 
Play the same Riff during this solo as in the first solo. 
 
Solo 2: 
|---------------------------------------------------------------------------------| 
|----------------15--------------13-13^15-13^15-13-13^15-13-13^15-15-13^15--13p10-| 
|----------12^14----12^14--12^14--------------------------------------------------| 
|-(b9)7--7-(b9)-----------------------------------------------------------------------| 
|---------------------------------------------------------------------------------| 
|---------------------------------------------------------------------------------| 
 
 
|---------------------------------------------------------------| 
|-------10-13p10---------------------------13^15-r-10h12--------| 
|-12^14----------12-10-12--------5/7-7-------------------12^14r-| 
|-------------------------7-7/10--------------------------------| 
|---------------------------------------------------------------| 
|---------------------------------------------------------------| 
 
 
|-------------------------------------------------------------------------------| 
|--------------------8p6-8p6-----------------------6-6-6/8-8--13^15-13p11-------| 
|-------------3/5^7~---------7-5^7~----------------5-5--------------------12-10-| 
|-----3-3h5-5------------------------------------3------------------------------| 
|-3/5--------------------------------------0-1-3--------------------------------| 
|------------------------------------1-0-1--------------------------------------| 
 
 
|-----------| 
|-----------| 
|-----------| 
|-8-8/10-10-| 
|-----------| 
|-----------| 
 
Riff 1  
 
Play Riff 1 during this solo. 
 
Solo 3: 
|-------------------------------3p1---3p1---1-3h5p3---3-5-3---3--8-6---6-5-3-| 
|---------------3p1---1-------3-----3-----3---------6-------6----6-6-6---6-3-| 
|-0-3-0-----0h3-----3---3-3/5------------------------------------------------| 
|-------3-3------------------------------------------------------------------| 
|----------------------------------------------------------------------------| 
|----------------------------------------------------------------------------| 
 
4:48 
|---1h3-1h3p1-----------------------------------------------------1---------------| 
|-3-----------3--1---1-3p1---1------------------3-3-6-----------3-----------------| 
|------------------3-------3---3------------3/5-----5-0-----0-3-----0-----0-3-0---| 
|--------------------------------5-3-3-h5-5-------------3-3-----------3-3-------3-| 
|---------------------------------------------------------------------------------| 
|---------------------------------------------------------------------------------| 
 
 
|---------------------------------------------------------------------------------| 
|------------------1-2^3-1-1---1-3p1---1------------------------------------------| 
|-0-0--3p0-----0-3-----------3-------3---3-0-----0-0----3---3---3-----------------| 
|----------3-3-------------------------------3-3------5---5---5---5-3---------3-5-| 
|---------------------------------------------------------------------5-5-3-5-----| 
|---------------------------------------------------------------------------------| 
 
 
|-------------------| 
|-------------------| 
|-0-3p0-------------| 
|--------3h5-5--3-5-| 
|-------------------| 
|-------------------| 
 
Riff 1 
 
|-------------------------------------------------| 
|-------------------------------------------------| 
|--------------------------5-3--7----7-7---5----5-| 
|-5-4-5----------------3---5-3--5----5-5---5--5-5-| 
|-------5-4-5-1-0-1--3---3-1--5----5-5---3------| 
|-------------------------------------------------| 
 
 
|------------------------------------------------| 
|------------------------------------------------| 
|--------------------------7-------5-5-5-----3-2-| 
|-10-10-(b9)10---------------5-------3-3-3-----3-2-| 
|-------------10-(b9)10------5---5-----3-3-----1-0-| 
|----------------------3-3---3---1-------1-------| 
 
Riff 1 1x 
 
|----------------------------------------------------------------| 
|----------------------------------------------------------------| 
|-7----7-7---5----5------------------------7-------5-5-5-----3-2-| 
|-5----5-5---5--5-5--10-(b9)10--10-(b9)10------5-------3-3-3-----3-2-| 
|-5----5-5---3-----------------------------5---5-----3-3-----1-0-| 
|--------------------------------------3-3---3---1-------1-------| 
 
Riff 1 1x 
 
|-----------------------------------| 
|-----------13	-11-10h11p10-------| 
|-----------12-10-----------9/10-| 
|-3---------------------------------| 
|-3---7/8-8-------------------------| 
|-1---------------------------------| 
 
 
The right speaker: 
 
Riff 1 
|-------------------------------------------| 
|-------------------------------------------| 
|-------------------------------------------| 
|-8-7-8--5-4-5----------------2-3-3-2-------| 
|--------------5-4-5-1--5-5-5---------5-4-5-| 
|-------------------------------------------| 
 
 
|-------------------------------------------| 
|-------------------------------------------| 
|-------------------------------------------| 
|-8-7-8--5-4-5----------------2-3-3-2-------| 
|--------------5-4-5-1--5-5-5---------5-4-5-| 
|-------------------------------------------| 
 
Riff 1 2x 
 
|-----------------------------------------------------------------| 
|-----------------------------------------------------------------| 
|-------------------------5-3-7----7-7------------------------3-2-| 
|-8-7-8--5-4-5--------3---5-3-5----5-5----13-12-13--10-(b9)10---3-2-| 
|--------------5-4-5--3---3-1-5----5-5------------------------1-0-| 
|-----------------------------------------------------------------| 
 
riff 1 1x 
 
|-----------------------------------------------------------------| 
|-----------------------------------------------------------------| 
|-7----7-7---5----5-------------------------7-------5-5-5-----3-2-| 
|-5----5-5---5--5-5--13-12-13--10-(b9)10------5-------3-3-3-----3-2-| 
|-5----5-5---3------------------------------5---5-----3-3-----1-0-| 
|---------------------------------------3-3---3---1-------1-------| 
 
Riff 1 1x 
 
|-----------------------------------------------------------------| 
|---------------------------8-8-8-8-8-8---------------------------| 
|-----------------------5-3-7-7-7-7-7-7--7---5--5-3-3-------------| 
|-8-7-8--5-4-5----------3-1-5-5-5-5-5-5--5---5--5-3-3-------------| 
|--------------5-4-5--------5-5-5-5-5-5--5------3-1-1-------------| 
|--------------------1---------------------3-----------1--3-3-3-3-| 
 
 
|----------------------------------------------------------| 
|----------------------------------------------------------| 
|------------------7---5-5-3-------------------------------| 
|-5--5-4-5---------5---5-5-3--------------5--5-4-5---------| 
|----------5-4-5-5-----3-1-1---------------------5-4-5-| 
|--------------------3---------1--3-3-3-3------------------| 
 
Riff 2 4x: 
|-------------------------| 
|-10-8-7-8-10-10-10-10-10-| 
|-(b9)-7-7-7--(b9)-(b9)-(b9)-(b9)-(b9)| 
|-11-(b9)7-5-11-11-11-11-11-| 
|-------------------------| 
|-------------------------| 
 
(solo 1) 
 
riff 1 1x 
 
|-----------------------------------------------------------------| 
|-----------------------------------------------------------------| 
|-------------------------5-3-7----7-7------------------------3-2-| 
|-8-7-8--5-4-5--------3---5-3-5----5-5----13-12-13--10-(b9)10---3-2-| 
|--------------5-4-5--3---3-1-5----5-5------------------------1-0-| 
|-----------------------------------------------------------------| 
 
riff 1 1x 
 
|-----------------------------------------------------------------| 
|-----------------------------------------------------------------| 
|-7----7-7---5----5-------------------------7-------5-5-5-----3-2-| 
|-5----5-5---5--5-5--13-12-13--10-(b9)10------5-------3-3-3-----3-2-| 
|-5----5-5---3------------------------------5---5-----3-3-----1-0-| 
|---------------------------------------3-3---3---1-------1-------| 
 
Riff 1 1x 
 
|-----------------------------------------------------------------| 
|-----------------------------------------------------------------| 
|---------------------------7-7-7-7-7-7--7---5--5-3-3-------------| 
|-8-7-8--5-4-5----------3-1-5-5-5-5-5-5--5---5--5-3-3-------------| 
|--------------5-4-5-3--3-1-5-5-5-5-5-5--5------3-1-1-------------| 
|--------------------1---------------------3-----------1--3-3-3-3-| 
 
 
|----------------------------------------------------------| 
|----------------------------------------------------------| 
|------------------7---5-5-3-------------------------------| 
|-5--5-4-5---------5---5-5-3--------------5--5-4-5---------| 
|----------5-4-5-5-----3-1-1---------------------5-4-5-| 
|--------------------3---------1--3-3-3-3------------------| 
 
Riff 2 4x 
 
(solo 2) 
 
Riff 1 during solo 3 
 
|------------------------------------------------| 
|------------------------------------------------| 
|-------------------------5-3--7----7-7---5----5-| 
|-8-7-8--5-4-5--------3---5-3--5----5-5---5--5-5-| 
|--------------5-4-5--3---3-1--5----5-5---3------| 
|------------------------------------------------| 
 
 
|----------------------------------------------| 
|----------------------------------------------| 
|------------------------7-------5-5-5-----3-2-| 
|-13-12-13--10-(b9)10------5-------3-3-3-----3-2-| 
|------------------------5---5-----3-3-----1-0-| 
|--------------------3-3---3---1-------1-------| 
 
Riff 1 1x 
 
|-----------------------------------------------------------------| 
|-----------------------------------------------------------------| 
|-7----7-7---5----5-------------------------7-------5-5-5-----3-2-| 
|-5----5-5---5--5-5--13-12-13--10-(b9)10------5-------3-3-3-----3-2-| 
|-5----5-5---3------------------------------5---5-----3-3-----1-0-| 
|---------------------------------------3-3---3---1-------1-------| 
 
Riff 1 1x 
 
|-------------------------------------------------| 
|-------------------------------------------------| 
|--------------------------5-3--7----7-7---5----5-| 
|-5-4-5----------------3---5-3--5----5-5---5--5-5-| 
|-------5-4-5-1-0-1--3---3-1--5----5-5---3------| 
|-------------------------------------------------| 
 
 
|------------------------------------------------| 
|------------------------------------------------| 
|--------------------------7-------5-5-5-----3-2-| 
|-10-10-(b9)10---------------5-------3-3-3-----3-2-| 
|-------------10-(b9)10------5---5-----3-3-----1-0-| 
|----------------------3-3---3---1-------1-------| 
 
Riff 1 1x 
 
|----------------------------------------------------------------| 
|----------------------------------------------------------------| 
|-7----7-7---5----5------------------------7-------5-5-5-----3-2-| 
|-5----5-5---5--5-5--10-(b9)10--10-(b9)10------5-------3-3-3-----3-2-| 
|-5----5-5---3-----------------------------5---5-----3-3-----1-0-| 
|--------------------------------------3-3---3---1-------1-------| 
 
Riff 1 1x 
 
|-----------------------------------| 
|-----------13	-11-10h11p10-------| 
|-----------12-10-----------9/10-| 
|-3---------------------------------| 
|-3---7/8-8-------------------------| 
|-1---------------------------------|		   
AcordesyTabs.com © 2008 Acordes y Tablaturas para guitarra. Tabs and Chords for guitar. Aviso Legal - Contacto
El uso de este sitio está sujeto a la aceptación de los términos y condiciones (31 usuarios online)