tablaturas, partituras y acordes para guitarra
Busca por banda/artista:
 
y/o título de la canción:
A B C D E F G H I J K L M N O P Q R S T U V W X Y Z 0 1 2 3 4 5 6 7 8 9 / Top 100 tabs
Categorías
Usuarios
usuario:
Darse de alta
password:
Artistas más visitados
Publicidad
TOP acordes y tablaturas de 3 Doors Down


Kryptonite
de 3 Doors Down
Puntúa este acorde/tab:      
(0.5/5)
Reportar este acorde/tab
  Añadir a tus favoritos
  Imprimir
Song Title:  "Kryptonite"
Group:  Three Doors Down
Transcribed by Joseph Allen II
G       320003
Bm      x24432
A       002220

Clean distortion

Guitar:
-Intro-
Bm G A

Riff #1
E|------------------------------------------------
B|----3--------3----------0---------------2-------
G|-----4---------4----------0-----------2---2-----
D|--4----4---4------4----------0------2------2----
A|-2-------2------------2--------0--0----------0--
E|---------------------3--------------------------
-Verse 1-
Repeat Riff #1 throughout verse

-Chorus-
Bm G A -repeated
----------------
-Bridge-
Repeat Riff #2 2x

Riff #2
E|--------------3--1-----1-----------------------------2--1--2--1--2--1--2--1--
B|-1--3--4--3---------4-----4--3----3--1--3--1--3--1---------------------------

Riff #2 con't
E|---------------------------
B|--2--1--2--1--2--1--2--1---



I just want to say hey to nater and scott
ha ha I figured it out first.....

		   
AcordesyTabs.com © 2008 Acordes y Tablaturas para guitarra. Tabs and Chords for guitar. Aviso Legal - Contacto
El uso de este sitio está sujeto a la aceptación de los términos y condiciones (37 usuarios online)