tablaturas, partituras y acordes para guitarra
Busca por banda/artista:
 
y/o título de la canción:
A B C D E F G H I J K L M N O P Q R S T U V W X Y Z 0 1 2 3 4 5 6 7 8 9 / Top 100 tabs
Categorías
Usuarios
usuario:
Darse de alta
password:
Artistas más visitados
Publicidad
TOP acordes y tablaturas de The police


Estás en: Inicio > Letra T > Acordes y tablaturas de The police > Wrapped around your
Wrapped around your
de The police
Puntúa este acorde/tab:      
(0.6/5)
Reportar este acorde/tab
  Añadir a tus favoritos
  Imprimir
Glockenspiel intro:
   Am            Em7 Am               G  Am        Em7       Am      G
e  |  -----------------------------------------------------------------------  |  
B  |  -----------------------------------------------------------------------  |  
G  |  -(b9)10-(b9)10-7-(b9)7-(b9)---7----7-----------------------------------------(b9)  |  
D  |  -------------------10---10---(b9)10-(b9)---7-7--7-10-(b9)10-(b9)---7-7--10-(b9)--  |  
A  |  ------------------------------------10------------------10-------------  |  
E  |  -----------------------------------------------------------------------  |  

Keyboard:
   Am                Am                  Am                  Am
e  |  -5----5-----------5----5-------------5-5----------------5-5--------  |  
[No other strings needed]

Am                  Em7      Am      G
You consider me the young apprentice
Am                        Em7     Am    G
Caught between the Scylla and Charybdis
Am                   Em7      Am     G
Hypnotized by you if I should linger
Am                   Em7        Am     G
Staring at the ring around your finger

I have only come here seeking knowledge

Things they would not teach me of in college

I can see the destiny you sold

Turned into a shining band of gold


G                           F7M
I'll be wrapped around your finger
G                           F7M  *
I'll be wrapped around your finger

Mephistopheles is not your name

But I know what you're up to just the same

I will listen hard to your tuition

You will see it come to it's fruition

And I'll be wrapped around your finger

I'll be wrapped around your finger *


Am            Em7             F      G
Devil and the deep blue sea behind me
Am            Em7               F      G
Vanish in the air, you'll never find me
Am               Em7         F     G
I will turn your flesh to alabaster
Am                 Em7             F
When you find your servant is your master

And you'll be wrapped around my finger
You'll be wrapped around my finger *

[Intro riff again to fade]


Fill at * mark:
   G        Dm7  G  Am
e  |  ----3-----5----3-5-  |  
B  |  -3----3---6----3-5-  |  
G  |  -0------0-5---(4)---  |  
D  |  -0------------------  |  
A  |  --------------------  |  
E  |  --------------------  |  

How the chorus is played:
   G (strummed)                 F7M
e  |  -3-------3-------------------0------0---  |  
B  |  -0-------0-------------------1------1---  |  
G  |  -0-------0----------------------2-----2-  |  
D  |  -0-------0----------------------3-----3-  |  
A  |  -2-------2----------------------0-----0-  |  
E  |  -3-------3------------------------------  |  
   I'll be wrapped around your finger


I think that's everything... I'm quite proud of this tab! lol
PM me with any queries or comments. Thanks!

  |    /  slide up
  |      slide down
  |    h  hammer-on
  |    p  pull-off
  |    ~  vibrato
  |    +  harmonic
  |    x  Mute note
  |   (?) Ghost note  		   
AcordesyTabs.com © 2008 Acordes y Tablaturas para guitarra. Tabs and Chords for guitar. Aviso Legal - Contacto
El uso de este sitio está sujeto a la aceptación de los términos y condiciones (29 usuarios online)