tablaturas, partituras y acordes para guitarra
Busca por banda/artista:
 
y/o título de la canción:
A B C D E F G H I J K L M N O P Q R S T U V W X Y Z 0 1 2 3 4 5 6 7 8 9 / Top 100 tabs
Categorías
Usuarios
usuario:
Darse de alta
password:
Artistas más visitados
Publicidad
TOP acordes y tablaturas de Foo fighters


Estás en: Inicio > Letra F > Acordes y tablaturas de Foo fighters > My hero acústico
My hero acústico
de Foo fighters
Puntúa este acorde/tab:      
(0.3/5)
Reportar este acorde/tab
  Añadir a tus favoritos
  Imprimir
Introdução: (E C#) 3x             (F# A) 1x
e|--0-0-0-4-4-4-4-4-4-4-4-4--||---------------|
B|--0-0-0-4-4-7-4-4-4-7-5-5--||---------------|
G|--1-1-1-4-4-4-4-4-4-4-4-4--||---------------|
D|--2-2-2-6-6-6-6-6-6-6-6-6--||---------------|
A|--2-2-2-4-4-4-4-4-4-4-4-4--||------4-2------|
E|--0-0-0--------------------||--2-2-----4-5--|

Verso:  (E C#)
e||--0-0-0-4-4-4-4-4-4-4-4-4--||
B||--0-0-0-4-4-7-4-4-4-7-5-5--||
G||--1-1-1-4-4-4-4-4-4-4-4-4--||
D||--2-2-2-6-6-6-6-6-6-6-6-6--||
A||--2-2-2-4-4-4-4-4-4-4-4-4--||
E||--0-0-0--------------------||
E    C#m             E    C#m
Too alarming now to talk about
E          C#m                E        C#m
Take your pictures down and shake it out
E          C#m       E       C#m   E         C#m     E        C#m
Truth or consequence say it aloud use that evidence race it around
 
Refrão:                                           (E)
e|---------------------------------------|--0-0-0-0-0-0-0---|
B|---------------------------------------|--0-0-0-0-0-0-0---|
G|-2-2-2-2---2-2-2-2---2-2-2-2---2-2-2-2-|--1-1-1-2-2-2-2p1-|
D|-2-2-2-2---1-1-1-1---2-2-2-2---3-3-3-3-|--2-2-2-2-2-2-2---|
A|-0-0-0-0---0-0-0-0---0-0-0-0---4-4-4-4-|--2-2-2-2-2-2-2---|
E|---------------------------------------|--0-0-0-0-0-2-2---|
  -------------------2x-------------------------2x----------
 There goes my hero watch him as he goes
                                                  (E)
e|---------------------------------------|--0-0-0-0-0-0-0---|
B|---------------------------------------|--0-0-0-0-0-0-0---|
G|-2-2-2-2---2-2-2-2---2-2-2-2---2-2-2-2-|--1-1-1-2-2-2-2p1-|
D|-2-2-2-2---1-1-1-1---2-2-2-2---3-3-3-3-|--2-2-2-2-2-2-2---|
A|-0-0-0-0---0-0-0-0---0-0-0-0---4-4-4-4-|--2-2-2-2-2-2-2---|
E|---------------------------------------|--0-0-0-0-0-2-2---|
  -------------------2x-------------------------2x---------- 
 There goes my hero he’s ordinary

Passagem: (F# A)
e|---------------|
B|---------------|
G|---------------|
D|---------------|
A|------4-2------|
E|--2-2-----4-5--|

Interlúdio:
e|-0-0-0-0-0-|
B|-4-5-4-2-0-|
G|-----------|
D|-----------|
A|-----------|
E|-----------|

Verso:  (E C#)
e||--0-0-0-4-4-4-4-4-4-4-4-4--||
B||--0-0-0-4-4-7-4-4-4-7-5-5--||
G||--1-1-1-4-4-4-4-4-4-4-4-4--||
D||--2-2-2-6-6-6-6-6-6-6-6-6--||
A||--2-2-2-4-4-4-4-4-4-4-4-4--||
E||--0-0-0--------------------||
E         C#m           E       C#m
Don´t the best of them bleed it out
E          C#m           E    C#m 
While the rest of them Peter out
E          C#m       E       C#m   E         C#m     E        C#m
Truth or consequence say it aloud use that evidence race it around

Refrão:                                           (E)
e|---------------------------------------|--0-0-0-0-0-0-0---|
B|---------------------------------------|--0-0-0-0-0-0-0---|
G|-2-2-2-2---2-2-2-2---2-2-2-2---2-2-2-2-|--1-1-1-2-2-2-2p1-|
D|-2-2-2-2---1-1-1-1---2-2-2-2---3-3-3-3-|--2-2-2-2-2-2-2---|
A|-0-0-0-0---0-0-0-0---0-0-0-0---4-4-4-4-|--2-2-2-2-2-2-2---|
E|---------------------------------------|--0-0-0-0-0-2-2---|
  -------------------2x-------------------------2x----------
 There goes my hero watch him as he goes
                                                  (E)
e|---------------------------------------|--0-0-0-0-0-0-0---|
B|---------------------------------------|--0-0-0-0-0-0-0---|
G|-2-2-2-2---2-2-2-2---2-2-2-2---2-2-2-2-|--1-1-1-2-2-2-2p1-|
D|-2-2-2-2---1-1-1-1---2-2-2-2---3-3-3-3-|--2-2-2-2-2-2-2---|
A|-0-0-0-0---0-0-0-0---0-0-0-0---4-4-4-4-|--2-2-2-2-2-2-2---|
E|---------------------------------------|--0-0-0-0-0-2-2---|
  -------------------2x-------------------------2x----------
 There goes my hero he’s ordinary

Passagem:(F# A)
e|---------------|
B|---------------|
G|---------------|
D|---------------|
A|------4-2------|
E|--2-2-----4-5--|

Verso:  (E C#)
e||--0-0-0-4-4-4-4-4-4-4-4-4--||
B||--0-0-0-4-4-7-4-4-4-7-5-5--||
G||--1-1-1-4-4-4-4-4-4-4-4-4--||
D||--2-2-2-6-6-6-6-6-6-6-6-6--||
A||--2-2-2-4-4-4-4-4-4-4-4-4--||
E||--0-0-0--------------------||
E        C#m
Kudos my hero
E              C#m
Leaving all the best
E           C#m
Your knows my hero
    E           C#m
The one that´s on

Refrão:                                           (E)
e|---------------------------------------|--0-0-0-0-0-0-0---|
B|---------------------------------------|--0-0-0-0-0-0-0---|
G|-2-2-2-2---2-2-2-2---2-2-2-2---2-2-2-2-|--1-1-1-2-2-2-2p1-|
D|-2-2-2-2---1-1-1-1---2-2-2-2---3-3-3-3-|--2-2-2-2-2-2-2---|
A|-0-0-0-0---0-0-0-0---0-0-0-0---4-4-4-4-|--2-2-2-2-2-2-2---|
E|---------------------------------------|--0-0-0-0-0-2-2---|
  -------------------2x-------------------------2x----------
 There goes my hero watch him as he goes
                                                  (E)
e|---------------------------------------|--0-0-0-0-0-0-0---|
B|---------------------------------------|--0-0-0-0-0-0-0---|
G|-2-2-2-2---2-2-2-2---2-2-2-2---2-2-2-2-|--1-1-1-2-2-2-2p1-|
D|-2-2-2-2---1-1-1-1---2-2-2-2---3-3-3-3-|--2-2-2-2-2-2-2---|
A|-0-0-0-0---0-0-0-0---0-0-0-0---4-4-4-4-|--2-2-2-2-2-2-2---|
E|---------------------------------------|--0-0-0-0-0-2-2---|
  -------------------2x-------------------------2x----------
 There goes my hero he’s ordinary
                                                  (E)
e|---------------------------------------|--0-0-0-0-0-0-0---|
B|---------------------------------------|--0-0-0-0-0-0-0---|
G|-2-2-2-2---2-2-2-2---2-2-2-2---2-2-2-2-|--1-1-1-2-2-2-2p1-|
D|-2-2-2-2---1-1-1-1---2-2-2-2---3-3-3-3-|--2-2-2-2-2-2-2---|
A|-0-0-0-0---0-0-0-0---0-0-0-0---4-4-4-4-|--2-2-2-2-2-2-2---|
E|---------------------------------------|--0-0-0-0-0-2-2---|
  -------------------2x-------------------------2x----------
 There goes my hero watch him as he goes
                                                  (E)
e|---------------------------------------|--0-0-0-0-0-0-0---|
B|---------------------------------------|--0-0-0-0-0-0-0---|
G|-2-2-2-2---2-2-2-2---2-2-2-2---2-2-2-2-|--1-1-1-2-2-2-2---|
D|-2-2-2-2---1-1-1-1---2-2-2-2---3-3-3-3-|--2-2-2-2-2-2-2---|
A|-0-0-0-0---0-0-0-0---0-0-0-0---4-4-4-4-|--2-2-2-2-2-2-2---|
E|---------------------------------------|--0-0-0-0-0-2-2---|
  -------------------2x-------------------------2x----------
 There goes my hero he’s ordinary

Passagem: (F# A)
e|---------------|
B|---------------|
G|---------------|
D|---------------|
A|------4-2------|
E|--2-2-----4-5--|		   
AcordesyTabs.com © 2008 Acordes y Tablaturas para guitarra. Tabs and Chords for guitar. Aviso Legal - Contacto
El uso de este sitio está sujeto a la aceptación de los términos y condiciones (27 usuarios online)