tablaturas, partituras y acordes para guitarra
Busca por banda/artista:
 
y/o título de la canción:
A B C D E F G H I J K L M N O P Q R S T U V W X Y Z 0 1 2 3 4 5 6 7 8 9 / Top 100 tabs
Categorías
Usuarios
usuario:
Darse de alta
password:
Artistas más visitados
Publicidad
TOP acordes y tablaturas de The casualties


Estás en: Inicio > Letra T > Acordes y tablaturas de The casualties > Casualties army
Casualties army
de The casualties
Puntúa este acorde/tab:      
(0.8/5)
Reportar este acorde/tab
  Añadir a tus favoritos
  Imprimir
Intro
-------------------------------------------------------------------------------------------------------
-------------------------------------------------------------------------------------------------------
-------------------------------------------------------------------------------------------------------
1(b9)18-17-16-15-14-13-12-11-10-(b9)8-7-6-5-6-7-7-7-7-7-7-7-7-7-7-7-7-7-7-7-7-7-7-7-7-7-7-7-7-7-6-5-4-3-2-1

Main Riff
G:---------------------------------------------------------------------------------
D:-------------------------------5-5-------------------------------5-7-7-7-7-5-----
A:-----------------------7-7-7-7-----7-5-------------------------7-------------7-5-
E:-7-7-7-7-7-7-7-6-6-3-3-----------------7-7-7-7-7-7-7-7-6-6-3-3-------------------

G:---------------------------------------------------------------------------------
D:-------------------------------5-5-------------------------------5-7-7-7-7-5-----
A:-----------------------7-7-7-7-----7-5-------------------------7-------------7-5-
E:-7-7-7-7-7-7-7-6-6-3-3-----------------7-7-7-7-7-7-7-7-6-6-3-3-------------------

G:---------------------------------------------------------------------------------
D:-------------------------------5-5-------------------------------5-7-7-7-7-5-----
A:-----------------------7-7-7-7-----7-5-------------------------7-------------7-5-
E:-7-7-7-7-7-7-7-6-6-3-3-----------------7-7-7-7-7-7-7-7-6-6-3-3-------------------

G:---------------------------------------------------------------------------------
D:-------------------------------5-5-------------------------------5-7-7-7-7-5-----
A:-----------------------7-7-7-7-----7-5-------------------------7-------------7-5-
E:-7-7-7-7-7-7-7-6-6-3-3-----------------7-7-7-7-7-7-7-7-6-6-3-3-------------------

thats it...just do the main riff a total of 8 times		   
AcordesyTabs.com © 2008 Acordes y Tablaturas para guitarra. Tabs and Chords for guitar. Aviso Legal - Contacto
El uso de este sitio está sujeto a la aceptación de los términos y condiciones (20 usuarios online)