tablaturas, partituras y acordes para guitarra
Busca por banda/artista:
 
y/o título de la canción:
A B C D E F G H I J K L M N O P Q R S T U V W X Y Z 0 1 2 3 4 5 6 7 8 9 / Top 100 tabs
Categorías
Usuarios
usuario:
Darse de alta
password:
Artistas más visitados
Publicidad
TOP acordes y tablaturas de Beatles


Dr Robert
de Beatles
Puntúa este acorde/tab:      
(0.5/5)
Reportar este acorde/tab
  Añadir a tus favoritos
  Imprimir
-------------------------------------------------------------------------------
The Beatles - Dr.Robert from Revolver album
-------------------------------------------------------------------------------


Tabbed by:PJVillanueva







e|----------------------------------|--------------------------------|
B|--------2------------3------------|--------2-------------3---------|
G|--------2------------2---P---0----|--------0----0--H--2--2----0----|
D|--------2------------2------------|--------2-------------2---------|
A|0---------------------------------|--------------------------------|
E|----------------------------------|--------------------------------|

e|----------------------------------|--------------------------------|
B|--------2------------3------------|--------2-------------3---------|
G|--------0----0---2---2-------0----|--------0----0--H--2--2----0----|
D|--------2------------2------------|--------2-------------2---------|
A|----------------------------------|--------------------------------|
E|----------------------------------|--------------------------------|...A chord

e|----------------------------------|--------------------------------|
B|----------------------------------|--------------------------------|
G|--------3------------4------------|--------3-------------4---------|
D|--------4------------4---P---2----|--------2----2-H--4---4---P-2---|
A|----------------------------------|--------------------------------|
E|2---------------------------------|--------------------------------|

e|----------------------------------|--------------------------------|
B|----------------------------------|--------------------------------|
G|--------3------------4------------|--------3-------------4---------|
D|--------2----2-H-4---4---P---2----|--------2----2-H--4---4---P--2--|
A|----------------------------------|--------------------------------|
E|----------------------------------|--------------------------------|...F# chor

e|----------------------------------|--------------------------------|
B|----------------------------------|--------------------------------|
G|--------1------------2------------|--------3-------------4---------|
D|--------2------------2------------|--------4-------------4---------|
A|----------------------------------|--------------------------------|
E|0---------------------------------|2-------------------------------|E and F# c

e|----------------------------------|--------------------------------|
B|---------------------5------------|----------------------5---------|
G|--------4------------4-------2----|--------2---2--H--4---4---------|
D|--------4--------------------4----|--------4---4-------------------|
A|2---------------------------------|--------------------------------|
E|----------------------------------|--------------------------------|B chord

e|---------------------------------------------------------------------------|
B|---------------------------------------------------------------------------|
G|---------------------------------------------------------------------------|
D|---------------------------------------------------------------------------|
A|---------------------------------------------------------------------------|
E|---------------------------------------------------------------------------|

e|---------------------------------------------------------------------------|
B|---------------------------------------------------------------------------|
G|---------------------------------------------------------------------------|
D|---------------------------------------------------------------------------|
A|---------------------------------------------------------------------------|
E|---------------------------------------------------------------------------|


| /  slide up
|   slide down
| h  hammer-on
| p  pull-off
| ~  vibrato
| +  harmonic
| x  Mute note
===============================================================================

		   
AcordesyTabs.com © 2008 Acordes y Tablaturas para guitarra. Tabs and Chords for guitar. Aviso Legal - Contacto
El uso de este sitio está sujeto a la aceptación de los términos y condiciones (117 usuarios online)