tablaturas, partituras y acordes para guitarra
Busca por banda/artista:
 
y/o título de la canción:
A B C D E F G H I J K L M N O P Q R S T U V W X Y Z 0 1 2 3 4 5 6 7 8 9 / Top 100 tabs
Categorías
Usuarios
usuario:
Darse de alta
password:
Artistas más visitados
Publicidad
TOP acordes y tablaturas de Finger eleven


Estás en: Inicio > Letra F > Acordes y tablaturas de Finger eleven > Paralyzer intro
Paralyzer intro
de Finger eleven
Puntúa este acorde/tab:      
(0.4/5)
Reportar este acorde/tab
  Añadir a tus favoritos
  Imprimir
Gtr. 1 (Acoustic)
E | -------------------------- | 
B | --8----------------------- | 
G | --(b9)---------------------- | 
D | --(b9)---------------------- | 
A | --7----------------------- | 
E | --0----------------------- | 
    ////////////////////////
    Volume Swell
_________________________________________________________________________________________

[Mid Distortion Throughout]

Intro/Main Riff (x2):

(0:05)

  Gtr. 1  recorded version
E | ---------------------------------------------------------------------------------------------- | 
B | ---------------------------------------------------------------------------------------------- | 
G | -------------------------------------------------------------4-------------------------------- | 
D | -----------------------------------------------------2--2--------2--2------------------------- | 
A | -----------------------------------------------------0--0-xx---x-0--0------------------------- | 
E | -0-1(b9)17-15-14-x-14-14-15--0-1(b9)17-15-14-x-14--14-15------xx---x------1(b9)17-15-14-x-14--14-15- | 
  | 
  | Gtr. 1 * live version (upper octaves are also used in recorded version)
E | ---------------------------------------------------------------------------------------------- | 
B | ---------------------------------------------------------------------------------------------- | 
G | -------------------------------------------------------------4-------------------------------- | 
D | -----------------------------------------------------2--2--------2--2------------------------- | 
A | ---14-12-10-(b9)-x-(b9)--(b9)10----14-12-10-(b9)-x-(b9)--(b9)10--0--0-xx---x-0--0-14-12-10--(b9)x-(b9)--(b9)10-- | 
E | -0-------------------------0------------------------------------------------------------------ | 
  | 
  | Gtr. 2
E | --7--7---7---7--7--7-7-7----7--7---7---7--7--7-7-7-------------------------------------------- | 
B | --8--8---8---7--7--8-8-8----8--8---8---7--7--8-8-8----------------------3-3-x-x-8-8----------- | 
G | --(b9)-(b9)--(b9)--(b9)-(b9)-(b9)(b9)(b9)---(b9)-(b9)--(b9)--(b9)-(b9)-(b9)(b9)(b9)-----------4---------4-4-x-x-(b9)(b9)-11-11-12- | 
D | --(b9)-(b9)--(b9)--(b9)-(b9)-(b9)(b9)(b9)---(b9)-(b9)--(b9)--(b9)-(b9)-(b9)(b9)(b9)---2--2-xx---x-2--2--5-5-x-x-(b9)(b9)-x--x--x-- | 
A | --7--7---7---7--7--7-7-7----7--7---7---7--7--7-7-7----0--0-xx---x-0--0--5-5-----7-7--(b9)-(b9)10-- | 
E | ------------------------------------------------------------------------3-3------------------- | 
________________________________________________________________________________________

Verse (x3):

(0:23)
  
  Gtr. 1
E | ---------------------------------------------------------------------- | 
B | ---------------------------------------------------------------------- | 
G | -----12-------12----------12-----12------------12--12-------12-------- | 
D | --14-12-14-12-12-14-12h14-12--14-12-14-12-14---12--12-12h14----12h14-- | 
A | ---------------------------------------------------------------------- |  
E | ---------------------------------------------------------------------- | 
  |  
  | Gtr. 2 
E | ---------------------------------------------------------------------- | 
B | --8------------------------------------------------------------------- | 
G | --(b9)------------------------------------------------------------------ | 
D | --(b9)------------------------------------------------------------------ | 
A | --7------------------------------------------------------------------- | 
E | ---------------------------------------------------------------------- | 

(0:27)
                                                                     
E | ---------------------------------------------------------------------- |   
B | --------11-------11-------11-----------------11--------11-------11-11- |  
G | --11h12----11h12----11h12-11-----------11h12-----11h12----11h12-11-11- | 
D | ---------------------------------------------------------------------- | 
A | ---------------------------------------------------------------------- | 
E | ---------------------------------------------------------------------- | 
  |  
  | Gtr. 2
E | ------------------------------------------------------------------ | 
B | --11-------------------------------------------------------------- | 
G | --11-------------------------------------------------------------- | 
D | --11-------------------------------------------------------------- | 
A | --(b9)-------------------------------------------------------------- | 
E | ------------------------------------------------------------------ | 
_________________________________________________________________________________________

Pre-Chorus:

(0:50)

  Gtr. 1
E | ---------------------------------------------------------------------- | 
B | ---------------------------------------------------------------------- | 
G | -----12-------12----------12-----12------------12--12-------12-------- | 
D | --14-12-14-12-12-14-12h14-12--14-12-14-12-14---12--12-12h14----12h14-- | 
A | ---------------------------------------------------------------------- |  
E | ---------------------------------------------------------------------- | 

(0:55)

  Gtr. 1 and 2
E | ----------------------------------------------------------- | 
B | ----------------------------------------------------------- | 
G | ----------------------------------------------------------- | 
D | ----------------------------------------------------------- | 
A | -------------------------x-x-x-x--------------------------- | 
E | --7-7-7-5-5-5-3-3-3-2-2--x-x-x-x--7-7-7-5-5-5-3-3-3-2-2---- | 
_________________________________________________________________________________________

Chorus (x2):

(0:59)
 
  Gtr. 1  recorded version
E | ---------------------------------------------------------------------------------------------- | 
B | ---------------------------------------------------------------------------------------------- | 
G | -------------------------------------------------------------4-------------------------------- | 
D | -----------------------------------------------------2--2--------2--2------------------------- | 
A | -----------------------------------------------------0--0-xx---x-0--0------------------------- | 
E | -0-1(b9)17-15-14-x-14-14-15--0-1(b9)17-15-14-x-14--14-15------xx---x------1(b9)17-15-14-x-14--14-15- | 
  | 
  | Gtr. 1 * live version (upper octaves are also used in recorded version)
E | ---------------------------------------------------------------------------------------------- | 
B | ---------------------------------------------------------------------------------------------- | 
G | -------------------------------------------------------------4-------------------------------- | 
D | -----------------------------------------------------2--2--------2--2------------------------- | 
A | ---14-12-10-(b9)-x-(b9)--(b9)10----14-12-10-(b9)-x-(b9)--(b9)10--0--0-xx---x-0--0-14-12-10--(b9)x-(b9)--(b9)10-- | 
E | -0-------------------------0------------------------------------------------------------------ | 
  | 
  | Gtr. 2
E | --7--7---7---7--7--7-7-7----7--7---7---7--7--7-7-7-------------------------------------------- | 
B | --8--8---8---7--7--8-8-8----8--8---8---7--7--8-8-8----------------------3-3-x-x-8-8----------- | 
G | --(b9)-(b9)--(b9)--(b9)-(b9)-(b9)(b9)(b9)---(b9)-(b9)--(b9)--(b9)-(b9)-(b9)(b9)(b9)-----------4---------4-4-x-x-(b9)(b9)-11-11-12- | 
D | --(b9)-(b9)--(b9)--(b9)-(b9)-(b9)(b9)(b9)---(b9)-(b9)--(b9)--(b9)-(b9)-(b9)(b9)(b9)---2--2-xx---x-2--2--5-5-x-x-(b9)(b9)-x--x--x-- | 
A | --7--7---7---7--7--7-7-7----7--7---7---7--7--7-7-7----0--0-xx---x-0--0--5-5-----7-7--(b9)-(b9)10-- | 
E | ------------------------------------------------------------------------3-3------------------- | 
_________________________________________________________________________________________

Verse 2: (Just gtr. 2 playing same verse chords with odd sounds)
_________________________________________________________________________________________

(1:44)

Pre-chorus:

  Gtr. 1
E | ---------------------------------------------------------------------- | 
B | ---------------------------------------------------------------------- | 
G | -----12-------12----------12-----12------------12--12-------12-------- | 
D | --14-12-14-12-12-14-12h14-12--14-12-14-12-14---12--12-12h14----12h14-- | 
A | ---------------------------------------------------------------------- |  
E | ---------------------------------------------------------------------- | 

(1:49)

  Gtr. 1 and 2 
E | ----------------------------------------------------------- | 
B | ----------------------------------------------------------- | 
G | ----------------------------------------------------------- | 
D | ----------------------------------------------------------- | 
A | -------------------------x-x-x-x--------------------------- | 
E | --7-7-7-5-5-5-3-3-3-2-2--x-x-x-x--7-7-7-5-5-5-3-3-3-2-2---- | 

_________________________________________________________________________________________

Chorus (x2):

(1:53)
  
  Gtr. 1  recorded version
E | ---------------------------------------------------------------------------------------------- | 
B | ---------------------------------------------------------------------------------------------- | 
G | -------------------------------------------------------------4-------------------------------- | 
D | -----------------------------------------------------2--2--------2--2------------------------- | 
A | -----------------------------------------------------0--0-xx---x-0--0------------------------- | 
E | -0-1(b9)17-15-14-x-14-14-15--0-1(b9)17-15-14-x-14--14-15------xx---x------1(b9)17-15-14-x-14--14-15- | 
  | 
  | Gtr. 1 * live version (upper octaves are also used in recorded version)
E | ---------------------------------------------------------------------------------------------- | 
B | ---------------------------------------------------------------------------------------------- | 
G | -------------------------------------------------------------4-------------------------------- | 
D | -----------------------------------------------------2--2--------2--2------------------------- | 
A | ---14-12-10-(b9)-x-(b9)--(b9)10----14-12-10-(b9)-x-(b9)--(b9)10--0--0-xx---x-0--0-14-12-10--(b9)x-(b9)--(b9)10-- | 
E | -0-------------------------0------------------------------------------------------------------ | 
  | 
  | Gtr. 2
E | --7--7---7---7--7--7-7-7----7--7---7---7--7--7-7-7-------------------------------------------- | 
B | --8--8---8---7--7--8-8-8----8--8---8---7--7--8-8-8----------------------3-3-x-x-8-8----------- | 
G | --(b9)-(b9)--(b9)--(b9)-(b9)-(b9)(b9)(b9)---(b9)-(b9)--(b9)--(b9)-(b9)-(b9)(b9)(b9)-----------4---------4-4-x-x-(b9)(b9)-11-11-12- | 
D | --(b9)-(b9)--(b9)--(b9)-(b9)-(b9)(b9)(b9)---(b9)-(b9)--(b9)--(b9)-(b9)-(b9)(b9)(b9)---2--2-xx---x-2--2--5-5-x-x-(b9)(b9)-x--x--x-- | 
A | --7--7---7---7--7--7-7-7----7--7---7---7--7--7-7-7----0--0-xx---x-0--0--5-5-----7-7--(b9)-(b9)10-- | 
E | ------------------------------------------------------------------------3-3------------------- | 
_________________________________________________________________________________________

Bridge (x2):
 
(2:12)
 
  Gtr. 3(only used in recorded version Live: Gtr. 1 plays this once and then goes to next part.)
E | ---------------------------------------------------------------------- | 
B | ---------------------------------------------------------------------- | 
G | -----12-------12----------12-----12------------12--12-------12-------- | 
D | --14-12-14-12-12-14-12h14-12--14-12-14-12-14---12--12-12h14----12h14-- | 
A | ---------------------------------------------------------------------- |  
E | ---------------------------------------------------------------------- | 
  |                
  | Gtr. 2 (Plays on second time through) 
E | ---------------------------------------------------------------------- | 
B | ---------------------------------------------------------------------- | 
G | ---------------------------------------------------------------------- | 
D | --(b9)-7--5--4---4--4-5--------(b9)-7--5--4---4--4-5---------------------- | 
A | ---------------------------------------------------------------------- | 
E | ---------------------------------------------------------------------- | 
  | 
  | Gtr. 1 (Plays on second time through)
E | ---------------------------------------------------------------------- | 
B | -b12r10-8--7---7--7-8-------b12r10-8--7---7--7-8---------------------- | 
G | ---------------------------------------------------------------------- | 
D | ---------------------------------------------------------------------- | 
A | ---------------------------------------------------------------------- | 
E | ---------------------------------------------------------------------- | 
_________________________________________________________________________________________

Bridge (cont’d): 

(2:21)

  Gtr. 2
E | ------------------------------------------------------------------------------------- | 
B | ------------------------------------------------------------------------------------- | 
G | --3--3-----3--3------------3--3--------3--3--------3------3--3-----3--3-------------- | 
D | --------4--------2--2--4---------4--4--------4--4-----4---------4---------3--3--4---- | 
A | ------------------------------------------------------------------------------------- | 
E | ------------------------------------------------------------------------------------- | 
  | 
  | Gtr. 3 
E | ------------------------------------------------------------------------------------- | 
B | ------------------------------------------------------------------------------------- | 
G | --15-15-11-15-15-------11--15-15-11-11-15-15-11-11-15-11--15-15-11-15-15-------11---- | 
D | -----------------14-14---------------------------------------------------14-14------- | 
A | ------------------------------------------------------------------------------------- | 
E | ------------------------------------------------------------------------------------- | 

  Gtr. 1 
E | --------------------------------------------------------------------------- | 
B | --------------------------------------------------------------------------- | 
G | --------------------------------------------------------------------------- | 
D | --------------------------------------------------------------------------- | 
A | --------------------------------------------------------------------------- | 
E | --7--7--7--5--5--5--3--3--3--2--2------------------------------------------ | 
  | 
  | Gtr. 1 
E | --------------------------------------------------------------------------- | 
B | --12-12-12-10-10-10-----------------------------11-12---------------------- | 
G | --------------------12-12-12-11-11-11--11-12-14---------------------------- | 
D | --------------------------------------------------------------------------- | 
A | --------------------------------------------------------------------------- | 
E | --------------------------------------------------------------------------- | 
________________________________________________________________________________________

Chorus Bridge:

(2:29) 

  Gtr. 1 (x2)
E | --7--7--7--7--7-7--7-7-7---7--7--7--7--7-7--7-7-7---(b9)-(b9)-(b9)-(b9)--(b9)-(b9)--(b9)-(b9)-(b9)-(b9)-- | 
B | --8--8--8--8--8-8--8-8-8---8--8--8--8--8-8--8-8-8---10-10-10-10--10-10--10-10-10-10-- | 
G | --(b9)-(b9)-(b9)-(b9)-(b9)(b9)-(b9)(b9)(b9)--(b9)-(b9)-(b9)-(b9)-(b9)(b9)-(b9)(b9)(b9)--(b9)-(b9)-(b9)-(b9)--(b9)-(b9)--(b9)-(b9)-(b9)-(b9)-- | 
D | --(b9)-(b9)-(b9)-(b9)-(b9)(b9)-(b9)(b9)(b9)--(b9)-(b9)-(b9)-(b9)-(b9)(b9)-(b9)(b9)(b9)----------------------------------- | 
A | --7--7--7--7--7-7--7-7-7---7--7--7--7--7-7--7-7-7------------------------------------ | 
E | ------------------------------------------------------------------------------------- | 
  | 
  | (Only Play on first time through)
E | --7--7--7--7--7-7--7-7-7------- | 
B | --8--8--8--8--8-8--8-8-8------- | 
G | --(b9)-(b9)-(b9)-(b9)-(b9)(b9)-(b9)(b9)(b9)------ | 
D | --(b9)-(b9)-(b9)-(b9)-(b9)(b9)-(b9)(b9)(b9)------ | 
A | --7--7--7--7--7-7--7-7-7------- | 
E | ------------------------------- | 

  Gtr. 1  (plays second time through)
E | ---------------------------------------------------------------------------------------------- | 
B | ---------------------------------------------------------------------------------------------- | 
G | -------------------------------------------------------------4-------------------------------- | 
D | -----------------------------------------------------2--2--------2--2------------------------- | 
A | -----------------------------------------------------0--0-xx---x-0--0------------------------- | 
E | -0-1(b9)17-15-14-x-14-14-15--0-1(b9)17-15-14-x-14--14-15------xx---x------1(b9)17-15-14-x-14--14-15- | 
_________________________________________________________________________________________________

Outro Chorus (x4): 

(2:48)
 
  Gtr. 1  recorded version
E | ---------------------------------------------------------------------------------------------- | 
B | ---------------------------------------------------------------------------------------------- | 
G | -------------------------------------------------------------4-------------------------------- | 
D | -----------------------------------------------------2--2--------2--2------------------------- | 
A | -----------------------------------------------------0--0-xx---x-0--0------------------------- | 
E | -0-1(b9)17-15-14-x-14-14-15--0-1(b9)17-15-14-x-14--14-15------xx---x------1(b9)17-15-14-x-14--14-15- | 
  | 
  | Gtr. 1 * live version (upper octaves are also used in recorded version)
E | ---------------------------------------------------------------------------------------------- | 
B | ---------------------------------------------------------------------------------------------- | 
G | -------------------------------------------------------------4-------------------------------- | 
D | -----------------------------------------------------2--2--------2--2------------------------- | 
A | ---14-12-10-(b9)-x-(b9)--(b9)10----14-12-10-(b9)-x-(b9)--(b9)10--0--0-xx---x-0--0-14-12-10--(b9)x-(b9)--(b9)10-- | 
E | -0-------------------------0------------------------------------------------------------------ | 
  | 
  | Gtr. 2
E | --7--7---7---7--7--7-7-7----7--7---7---7--7--7-7-7-------------------------------------------- | 
B | --8--8---8---7--7--8-8-8----8--8---8---7--7--8-8-8----------------------3-3-x-x-8-8----------- | 
G | --(b9)-(b9)--(b9)--(b9)-(b9)-(b9)(b9)(b9)---(b9)-(b9)--(b9)--(b9)-(b9)-(b9)(b9)(b9)-----------4---------4-4-x-x-(b9)(b9)-11-11-12- | 
D | --(b9)-(b9)--(b9)--(b9)-(b9)-(b9)(b9)(b9)---(b9)-(b9)--(b9)--(b9)-(b9)-(b9)(b9)(b9)---2--2-xx---x-2--2--5-5-x-x-(b9)(b9)-x--x--x-- | 
A | --7--7---7---7--7--7-7-7----7--7---7---7--7--7-7-7----0--0-xx---x-0--0--5-5-----7-7--(b9)-(b9)10-- | 
E | ------------------------------------------------------------------------3-3------------------- | 
_________________________________________________________________________________________

END 		   
AcordesyTabs.com © 2008 Acordes y Tablaturas para guitarra. Tabs and Chords for guitar. Aviso Legal - Contacto
El uso de este sitio está sujeto a la aceptación de los términos y condiciones (6 usuarios online)