tablaturas, partituras y acordes para guitarra
Busca por banda/artista:
 
y/o título de la canción:
A B C D E F G H I J K L M N O P Q R S T U V W X Y Z 0 1 2 3 4 5 6 7 8 9 / Top 100 tabs
Categorías
Usuarios
usuario:
Darse de alta
password:
Artistas más visitados
Publicidad
TOP acordes y tablaturas de Foo fighters


Summers end
de Foo fighters
Puntúa este acorde/tab:      
(0.4/5)
Reportar este acorde/tab
  Añadir a tus favoritos
  Imprimir
Intro:

Pause...than

G:------------:
D:------------:
A:-5~~~~~~~~--:
E:------------:

Vers: 2x

G:--------------------------------------------------------------:
D:-------------------3~--------3~-------------------------------:
A:-5-5~--5---5-5~--5---5-5~--5---5~--5-5~--5---3-3-3333---------:
E:---------5---------------------------------5----------33--3333:

After first:

G:---------------------:
D:---------------------:
A:-------3-5-3-----5~~~:
E:-3-3-5-------3-------:

After second (before Chorus):

G:---------------------------------------------------------:
D:---------------------------------------------------------:
A:-------3-5-3-----5~~~-------3-5-3-----5~~~-------3-5-3---:
E:-3-3-5-------3--------3-3-5-------3--------3-3-5-------3-:

Chorus:

G:-----------------------------------------:
D:-----------------------------------------:
A:-5-5-55-55-------2--3-3-33-33------------:
E:-----------55-55--------------33-33-333--:

G:-----------------------------------------:
D:-----------------------------------------:
A:-5-5-55-55-------2--3-3-33-33------------:
E:-----------55-55--------------11-11-111--:

G:-----------------------------------------:
D:-----------------------------------------:
A:-5-5-55-55-------2--3-3-33-33------------:
E:-----------55-55--------------33-33-333--:

G:-------------------------------------------------:
D:-------------------------------------------------:
A:-5-5-55-55-------2--3-3-33-33-------3-5-3----5~~~:
E:-----------55-55--------------3-3-5-------5------:

Verse 2:

Chorus 2:

Solo: (The 2 connected notes are played with a light shuffle)
 : about 10x    |             these are 10's (high G)
G:------------- | ----------------------------------:
D:------------- | ----------------------------------:
A:-55-55-55-55- | -33-33-33-33--1010-1010-1010-1010-:
E:------------- | ----------------------------------:

G:--------------------------------------------------------------------------:
D:---------------------3~---------------------------------------------------:
A:-88-88-88-8-10---5-5----5-3---------------------55-55-55-7~-88-88-88-8-10-:
E:----------------------------5-3---11-11-11-1-3----------------------------:
                 (15's high c)
G:-----------------------------------------------------------------------:
D:-----------------------------------------------------------------------:
A:-33-33-/Slide/-1515-1515--15-17--------------------------------3-5-3---:
E:----------------------------------15---15-15-10-/Slide/--3-3-5-------5-:

Chorus 3:

G:-----------------------------------------:
D:-----------------------------------------:
A:-5-5-55-55-------2--3-3-33-33------------:
E:-----------55-55--------------33-33-333--:

G:-----------------------------------------:
D:-----------------------------------------:
A:-5-5-55-55-------2--3-3-33-33------------:
E:-----------55-55--------------11-11-111--:

G:-----------------------------------------:
D:-----------------------------------------:
A:-5-5-55-55-------2--3-3-33-33------------:
E:-----------55-55--------------33-33-333--:

G:------------------------------------------------------------:
D:------------------------------------------------------------:
A:-5-5-55-//-10-10-12~-12-12-10-----------------------3-5-3---:
E:------------------------------12-10--8-8-888--3-3-5-------5-:

Outro:
  2x
G:---------------------------------------------:
D:---------------------------------------------:
A:-5-5-55-55-------2--3-3-33-33-------3-5-3----:
E:-----------55-55--------------3-3-5-------5--:

G:---------------------------------------:
D:---------------------------------------:
A:-5-5-55-55-------2--3-3-33-33----------:
E:-----------55-55--------------33-33-333:

G:---------------------------------------------------------:
D:---------------------------------------------------------:
A:-5-5-55-55-------2--3-3-33-33-------3-5-3----5~~~~~~~~~~~:
E:-----------55-55--------------3-3-5-------5--------------:

End! 		   
AcordesyTabs.com © 2008 Acordes y Tablaturas para guitarra. Tabs and Chords for guitar. Aviso Legal - Contacto
El uso de este sitio está sujeto a la aceptación de los términos y condiciones (33 usuarios online)