tablaturas, partituras y acordes para guitarra
Busca por banda/artista:
 
y/o título de la canción:
A B C D E F G H I J K L M N O P Q R S T U V W X Y Z 0 1 2 3 4 5 6 7 8 9 / Top 100 tabs
Categorías
Usuarios
usuario:
Darse de alta
password:
Artistas más visitados
Publicidad
TOP acordes y tablaturas de Megadeth


Estás en: Inicio > Letra M > Acordes y tablaturas de Megadeth > Psychotron
Psychotron
de Megadeth
Puntúa este acorde/tab:      
(0.2/5)
Reportar este acorde/tab
  Añadir a tus favoritos
  Imprimir
Intro -
G | ----------------- | ----------------- | ----------------- | ----------------- | 
D | ----------------- | ----------------- | ----------------- | ----------------- | 
A | -----7----------- | -2/3------------- | -----7----------- | -2/3---------(b9)8- | 
E | -0---------7----- | -----0-3---0-2-1- | -0---------7----- | -----0-3---0----- | 

G | ----------------- | ----------------- | ----------------- | ----------------- | 
D | ----------------- | ----------------- | ----------------- | ----------------- | 
A | -7---7----------- | -2/3------------- | -----7----------- | -2/3---------(b9)8- | 
E | -----------7----- | -----0-3---0-2-1- | -0---------7----- | -----0-3---0----- | 

G | ----------------- | ----------------- | ----------------- | ----------------- | 
D | ---R------------- | ----------------- | ----------------- | ----------------- | 
A | -7--------------- | ----------------- | ----------------- | ----------------- | 
E | ----------------- | ----------------- | ----------------- | -----------1---1- | 

G | ----------------- | ----------------- | ----------------- | ----------------- | 
D | ----------------- | ----------------- | ----------------- | ----------------- | 
A | ----------------- | ----------------- | ----------------- | -------R--------- | 
E | -0-000---000--112 | /3-000---000--111 | -1-000---000--112 | /3-001----------- | 

G | ----------------- |  | 
D | ----------------- |  | 
A | ----------------- |  | 
E | ---------------1- |  | 

Riff 1
G | ----------------- | ----------------- | ----------------- | ----------------- | 
D | ----------------- | ----------------- | ----------------- | ----------------- | 
A | -----R-----R----- | -----R-----R----- | -----R-----R---7- | ---5------------- | 
E | -0-0---0-0------- | -0-0---0-0------- | -0-0---0-0------- | -----7-6-5-3-5-6- | 

G | ----------------- | ----------------- | ----------------- | ----------------- |  | 2x
D | ----------------- | ----------------- | ----------------- | ----------------- |  | 
A | -----R-----R----- | -----R-----R----- | -----R-----R---2- | ---0-3-2-5-3----- |  | 
E | -0-0---0-0------- | -0-0---0-0------- | -0-0---0-0------- | -------------2-3- |  | 

Riff 2
G | ----------------- | ----------------- | ----------------- | ----------------- |  | 
D | ----------------- | ----------------- | ----------------- | ----------------- |  | 
A | -----R---7\--- | -----R---7\--- | -----R---7------ | ----------------- |  | 
E | -0-0---0--------- | -0-0---0--------- | -0-0---0-----3--- | ---------------1- |  | 

Riff 3
G | ----------------- | ----------------- | ----------------- | ----------------- | 
D | ----------------- | ----------------- | ----------------- | ----------------- | 
A | -----7----------- | -2/3------------- | -----7----------- | -2/3---------(b9)8- | 
E | -0---------7----- | -----0-3---0-2-1- | -0---------7----- | -----0-3---0----- | 

G | ----------------- | ----------------- | ----------------- | ----------------- | 
D | ----------------- | ----------------- | ----------------- | ----------------- | 
A | -7---7----------- | -2/3------------- | -----7----------- | -3-3-3-3-3-3-3-3- | 
E | -----------7----- | -----0-3---0-2-1- | -0---------7----- | ----------------- | 

G | ----------------- |  | 
D | ----------------- |  | 
A | -3-2-----2------- |  | 
E | -----5-3---5-3-1- |  | 

Play Riff 1 - 2x
Play Riff 2
Play Riff 3 - 2x

Solo
G | ----------------- | ----------------- | ----------------- | ----------------- | 
D | ----------------- | ----------------- | ----------------- | ----------------- | 
A | -R-----R-----R--- | -------R-----R--- | -------R-----R--- | -------R-----R--- | 
E | ---222---222---5- | -2-222---222---3- | -2-222---222---5- | -2-222-----3---3- | 

G | ----------------- | ----------------- | ----------------- | ----------------- | 
D | ----------------- | ----------------- | ----------------- | ----------------- | 
A | -R-----R-----R--- | -------R-----R--- | -------R-----R--- | ----------------- | 
E | ---222---222---5- | -2-222---222---3- | -2-222---222---5- | -2-223----------- | 

G | ----------------- |  | 
D | ----------------- |  | 
A | ----------------- |  | 
E | ---------------1- |  | 

Riff 1a
G | ----------------- | ----------------- | ----------------- | ----------------- | 
D | ----------------- | ----------------- | ----------------- | ----------------- | 
A | -----R-----R----- | -----R-----R----- | -----R-----R---7- | ---5------------- | 
E | -0-0---0-0------- | -0-0---0-0------- | -0-0---0-0------- | -----7-6-5-3-5-6- | 

G | ----------------- | ----------------- | ----------------- | ----------------- | 
D | ----------------- | ----------------- | ----------------- | ----------------- | 
A | -----R-----R----- | -----R-----R----- | -----R-----R---2- | ---0-3-2-5-3----- | 
E | -0-0---0-0------- | -0-0---0-0------- | -0-0---0-0------- | -------------2-3- | 

G | ----------------- | ----------------- | ----------------- | ----------------- | 
D | ----------------- | ----------------- | ----------------- | ----------------- | 
A | -----R-----R----- | -----R-----R----- | -----R-----R---7- | ---5------------- | 
E | -0-0---0-0------- | -0-0---0-0------- | -0-0---0-0------- | -----7-6-5-3-5-6- | 

G | ----------------- | ----------------- | ----------------- | ----------------- |  | 
D | ----------------- | ----------------- | ----------------- | ----------------- |  | 
A | -----R-----R----- | -----R-----R----- | -----R-----R----- | ----------------- |  | 
E | -0-0---0-0------- | -0-0---0-0------- | -0-0---0-0-----3- | -------------1--- |  | 

Play Riff 3 - 2x

Outro
G | ----------------- | ----------------- | ----------------- | ----------------- | 3x
D | ----------------- | ----------------- | ----------------- | ----------------- | 
A | ----------------- | ----------------- | ----------------- | -------------R--- | 
E | -0-000---000--2/3 | -0-000---000-0-1- | ---000---000--2/3 | -0-000---001---1- | 

G | ----------------- | ----------------- | ----------------- | ----------------- | 
D | ----------------- | ----------------- | ----------------- | ----------------- | 
A | ----------------- | ----------------- | ----------------- | ----------------- | 
E | -0-000---000--2/3 | -0-000---000-0-1- | ---000---000--2/3 | -0-001-----3---5- | 

G | ----------------- |  | 
D | ----------------- |  | 
A | ---R------------- |  | 
E | -0--------------- |  |  		   
AcordesyTabs.com © 2008 Acordes y Tablaturas para guitarra. Tabs and Chords for guitar. Aviso Legal - Contacto
El uso de este sitio está sujeto a la aceptación de los términos y condiciones (32 usuarios online)