tablaturas, partituras y acordes para guitarra
Busca por banda/artista:
 
y/o título de la canción:
A B C D E F G H I J K L M N O P Q R S T U V W X Y Z 0 1 2 3 4 5 6 7 8 9 / Top 100 tabs
Categorías
Usuarios
usuario:
Darse de alta
password:
Artistas más visitados
Publicidad
TOP acordes y tablaturas de Megadeth


Estás en: Inicio > Letra M > Acordes y tablaturas de Megadeth > Motopsycho
Motopsycho
de Megadeth
Puntúa este acorde/tab:      
(0.5/5)
Reportar este acorde/tab
  Añadir a tus favoritos
  Imprimir
Intro
 | ------------ | ------------------------------ | 
 | ------------ | ----------17------------------ | 
 | ------------ | ----10s17----17--------------- | 
 | ------------ | ----------------17-17b18-(17)- | 

 |  | ----------------------------- | --------------------- | 
 |  | o---------------------------- | --------------------- | 
 |  | o---------------------------- | -------------1---3-1- | 
 |  | --15S3-3-3-1-3-3-3-3-1-3-3-3- | -3-1-3-3-3-3---3----- | 

 | ----------------------------- | --------------------- | 
 | ----------------------------- | --------------------- | 
 | ----------------------------- | -------------1---3-1- | 
 | -1-3-3-3-3-1-3-3-3-3-1-3-3-3- | -3-1-3-3-3-3---3----- | 

 | ----------------------------- | --------------------- | 
 | ----------------------------- | --------------------- | 
 | ----------------------------- | -------------1---3-1- | 
 | -1-3-3-3-3-1-3-3-3-3-1-3-3-3- | -3-1-3-3-3-3---3----- | 

 | ----------------------------- | --------------------- |  | 
 | ----------------------------- | --------------------- |  | 
 | ----------------------------- | -------------1---3-1- |  | 
 | -1-3-3-3-3-1-3-3-3-3-1-3-3-3- | -3-1-3-3-3-3---3----- |  | 

Pre-Chorus

 | --------------------------------- | --------------------------------- | 
 | --------------------------------- | --------------------------------- | 
 | -6-6-6-6-6-6-6-6-6-6-6-6-6-6-6-6- | -6-6-6-6-6-6-6-6-6-6-6-6-6-5-5-0- | 
 | --------------------------------- | --------------------------------- | 

 | --------------------------------- | ---------------------------- | 
 | --------------------------------- | ---------------------------- | 
 | -3-3-3-3-3-3-3-3-3-3-3-3-3-3-3-3- | -3-3-3-3-3-3-3-3-3-3-5-x--5- | 
 | --------------------------------- | ---------------------------- | 

 | ----------------------------- | --------------------- | 
 | ----------------------------- | --------------------- | 
 | ----------------------------- | -------------1---3-1- | 
 | -1-3-3-3-3-1-3-3-3-3-1-3-3-3- | -3-1-3-3-3-3---3----- | 

 | ----------------------------- | --------------------- | 
 | ----------------------------- | --------------------- | 
 | ----------------------------- | -------------1---3-1- | 
 | -1-3-3-3-3-1-3-3-3-3-1-3-3-3- | -3-1-3-3-3-3---3----- | 

 | --------------------------------- | --------------------------------- | 
 | --------------------------------- | --------------------------------- | 
 | -6-6-6-6-6-6-6-6-6-6-6-6-6-6-6-6- | -6-6-6-6-6-6-6-6-6-6-6-6-6-5-5-0- | 
 | --------------------------------- | --------------------------------- | 

 | --------------------------------- | ---------------------------- |  | 
 | --------------------------------- | ---------------------------- |  | 
 | -3-3-3-3-3-3-3-3-3-3-3-3-3-3-3-3- | -3-3-3-3-3-3-3-3-3-3-5-x--5- |  | 
 | --------------------------------- | ---------------------------- |  | 

Chorus

 | ------------------------ | ------------------- | 
 | ------------------------ | ------------------- | 
 | ---------------------1-- | -------------1----- | 
 | -3-3-3-3-3-3-3-3-3-3---- | -3-3-3-3-3-3----1-- | 

 | ------------------------ | ------------------- | 
 | ------------------------ | ------------------- | 
 | ---------------------1-- | -------------1----- | 
 | -3-3-3-3-3-3-3-3-3-3---- | -3-3-3-3-3-3----1-- | 

 | ------------------------ | ------------------- | 
 | ------------------------ | ------------------- | 
 | ---------------------1-- | -------------1----- | 
 | -3-3-3-3-3-3-3-3-3-3---- | -3-3-3-3-3-3----1-- | 

 | ------------------------ | ------------------- | 
 | ------------------------ | ------------------- | 
 | ---------------------1-- | -------------1----- | 
 | -3-3-3-3-3-3-3-3-3-3---- | -3-3-3-3-3-3----1-- | 

  1.

 | ------------- | -------------- |  | 
 | ------------- | -------------o |  | 
 | ------------- | -------1-----o |  | 
 | -3-----2----- | -1--------1--- |  | 

  2.

 | ------------ | ------------------------------ |  | 
 | ------------ | ----------17------------------ |  | 
 | ------------ | ----10s17----17--------------- |  | 
 | ------------ | ----------------17-17b18-(17)- |  | 

 | --------------------------------- | --------------------------------- | 
 | --------------------------------- | --------------------------------- | 
 | -6-6-6-6-6-6-6-6-6-6-6-6-6-6-6-6- | -6-6-6-6-6-6-6-6-6-6-6-6-6-5-5-0- | 
 | --------------------------------- | --------------------------------- | 

 | --------------------------------- | ---------------------------- |  | 
 | --------------------------------- | ---------------------------- |  | 
 | -3-3-3-3-3-3-3-3-3-3-3-3-3-3-3-3- | -3-3-3-3-3-3-3-3-3-3-5-x--5- |  | 
 | --------------------------------- | ---------------------------- |  | 

  Chorus
x4
 |  | ------------------------- | -------------------- |  | 
 |  | o------------------------ | -------------------o |  | 
 |  | o---------------------1-- | -------------1-----o |  | 
 |  | --3-3-3-3-3-3-3-3-3-3---- | -3-3-3-3-3-3----1--- |  | 

   Outro
x4
 |  | ------------------------- | -------------------- |  | 
 |  | o------------------------ | -------------------o |  | 
 |  | o---------------------1-- | -------------1-----o |  | 
 |  | --3-3-3-3-3-3-3-3-3-3---- | -3-3-3-3-3-3----1--- |  |  		   
AcordesyTabs.com © 2008 Acordes y Tablaturas para guitarra. Tabs and Chords for guitar. Aviso Legal - Contacto
El uso de este sitio está sujeto a la aceptación de los términos y condiciones (7 usuarios online)