tablaturas, partituras y acordes para guitarra
Busca por banda/artista:
 
y/o título de la canción:
A B C D E F G H I J K L M N O P Q R S T U V W X Y Z 0 1 2 3 4 5 6 7 8 9 / Top 100 tabs
Categorías
Usuarios
usuario:
Darse de alta
password:
Artistas más visitados
Publicidad
TOP acordes y tablaturas de Offspring


Estás en: Inicio > Letra O > Acordes y tablaturas de Offspring > Special Delivery
Special Delivery
de Offspring
Puntúa este acorde/tab:      
(0.9/5)
Reportar este acorde/tab
  Añadir a tus favoritos
  Imprimir
@@@@@@@@@@@@@@@@@@@@@@@@@@@@@@
  Artist: The Offspring
  Album: Conspiracy of One
  Song: Special Delivery
@@@@@@@@@@@@@@@@@@@@@@@@@@@@@@

Here it is! The easiest song on Co1.
Not very much guitar, but it rocks anyway!
Noy much to say, listen to it, play it!
Now I'm off.......to.....stalk.....someone....

/Daniel - phantom@libertysurf.se


pm = palm mute

Chorus: 2x  * = 8 times
E|----------------------------------|
B|----------------------------------|
G|--10-8-10-10-13-10-8-10-10----8*--|
D|--10-8-10-10-13-10-8-10-10-6*-8*--|
A|---8-6--8--8-11--8-6--8--8-6*-6*--|
E|---------------------------4*-----|


Chorus 3x


Post chorus thingy:  ** = 16 times  * = 8 times
E|------------------|
B|------------------|
G|--6**----8-8-8-8--|
D|--6**-8*-8-8-8-8--|
A|--4**-8*-6-6-6-6--|
E|------6*----------|


"But you can't kill a man" part:
E|---------------------------------------------------------------|
B|---------------------------------------------------------------|
G|-pmpmpmpmpmpmpmpmpmpmpmpmpmpmpmpmpmpmpmpmpmpmpmpmpmpmpm--------|
D|--3-3-3-3-3-3-3-3-3-3-3-3-3-3-3-3-3-3-3-3-3-3-3-3-3-3-3-10-10--|
A|--3-3-3-3-3-3-3-3-3-3-3-3-3-3-3-3-3-3-3-3-3-3-3-3-3-3-3-10-10--|
E|--1-1-1-1-1-1-1-1-1-1-1-1-1-1-1-1-1-1-1-1-1-1-1-1-1-1-1--8--8--|


Chorus 3x and the post chorus bit, and that's it!
		   
AcordesyTabs.com © 2008 Acordes y Tablaturas para guitarra. Tabs and Chords for guitar. Aviso Legal - Contacto
El uso de este sitio está sujeto a la aceptación de los términos y condiciones (19 usuarios online)