tablaturas, partituras y acordes para guitarra
Busca por banda/artista:
 
y/o título de la canción:
A B C D E F G H I J K L M N O P Q R S T U V W X Y Z 0 1 2 3 4 5 6 7 8 9 / Top 100 tabs
Categorías
Usuarios
usuario:
Darse de alta
password:
Artistas más visitados
Publicidad
TOP acordes y tablaturas de Black label society


Genocide junkies
de Black label society
Puntúa este acorde/tab:      
(0.2/5)
Reportar este acorde/tab
  Añadir a tus favoritos
  Imprimir
Tuning: down 1/2 step, drop low E to B 
(Bb, Ab, Db, Gb, Bb, Eb)

Intro and verse
 | ----------------------- | -------------------------- | 
 | ----------------------- | -------------------------- | 
 | ----------------------- | -------------------------- | 
 | ----------------------- | -------------------------- | 
 | ----------------------- | -------------------------- | 
 | -0-2-2-5-4-2--2--5-4-2- | ---2-5-4-2-0-2-2-0-2-2---- | 

 | ----------------------- | -------------------------- | 
 | ----------------------- | -------------------------- | 
 | ----------------------- | -------------------------- | 
 | ----------------------- | -------------------------- | 
 | ----------------------- | -------------------------- | 
 | -0-2-2-5-4-2---2-5-4-2- | --2-5-4-2-[5]b7r==5--0---- | 
                                   P.H.

 Pre-Chorus                             3x
 |  | ---------------------- | ------0-------- |  | -------------------------- | 
 |  | o--------------------- | ------0-------o |  | -------------------------- | 
 |  | ---------------------- | ---------4----- |  | -------------------------- | 
 |  | -------4-/5---2h4-2- | -(2)--2--4----- |  | ------4-/5---2h4p2------ | 
 |  | o-------------------2- | -(2)--2--2----o |  | ---------------------4---- | 
 |  | --2-2----------------- | ---------0----- |  | -2-2---------------------- | 
                      ^^^^^^
                    notes tied 

 PM-- |                    PM-- | 
 | ----------------------- | -------------------------- | 
 | ----------------------- | -------------------------- | 
 | ----------------------- | -------------------------- | 
 | ------4-/5---2h4p2--- | ------4-/5---2h4p2------ | 
 | ---------------------4- | ---------------------4---- | 
 | -0--0------------------ | -0--0--------------------- | 

 | ----------------------------- | ----------------------------- | 
 | ----------------------------- | ----------------------------- | 
 | ----------------------------- | -----4----------------------- | 
 | -4-/5--2-----4-/5--2----- | -4-6---6-4--4-2---2-------- | 
 | -----------4p2-----------4p2- | ------------------4---4-2---- | 
 | ----------------------------- | ----------------------------- | 

   Chorus                                  4x
 |  | --------------------------------0-------- |  | 
 |  | o-------------------------------0-------o |  | 
 |  | -----------------------------------4----- |  | 
 |  | --------------------------------2--4----- |  | 
 |  | o-----------11-----------11---2--2----o |  | 
 |  | --0-2-2-2---------0-2-2-2---------------- |  | 
  
   4/4
          PM |        PM---- |                PM |          PM |        PM |   ~~~
 |  | ---------------------- | --------------------- | ----------------------------- |  | 
 |  | o--------------------- | --------------------- | ----------------------------o |  | 
 |  | ---------------------- | --------------------- | ----------------------------- |  | 
 |  | --6-(6)-----6-(6)----- | ---6-(6)---6-(6)----- | -6-(6)-----6-(6)------------- |  | 
 |  | o-4-(4)-----4-(4)----- | ---4-(4)---4-(4)----- | -4-(4)-----4-(4)------------o |  | 
 |  | --0h=2--2-2-0h=2--2-2- | -2-0h=2--2-0h=2--2-2- | -0h=2--2-2-0h=2--2-7-(7)----- |  | 

                                  PM- |       PM---- |                PM | 
 |  | ------------------------ | --------------------- | ---------------------- |  | 
 |  | o----------------------- | --------------------- | ---------------------o |  | 
 |  | --(b9)--(b9)--7---7---7--7-- | --------------------- | ---------------------- |  | 
 |  | --(b9)--(b9)--7---7---7--7-- | -6-(6)-----6-(6)----- | ---6-(6)---6-(6)------ |  | 
 |  | o-7---7---5---5---5--5-- | -4-(4)-----4-(4)----- | ---4-(4)---4-(4)-----o |  | 
 |  | ------------------------ | -0h=2--2-2-0h=2--2-2- | -2-0h=2--2-0h=2--2-2-- |  |  


----------------------------------------------------------------------------

() notes are tied notes.  You don't play them twice, but let them ring
(as you do the hammer-on)

the E chord played like 

--0--
--0--
----- <---mute that string with barred index, then pull down Pinky for B chord.
--2--
--2--
-----

it can also be played as a standard E on 7th fret

-----
-----
--(b9)-
--(b9)-
--7--
----- 		   
AcordesyTabs.com © 2008 Acordes y Tablaturas para guitarra. Tabs and Chords for guitar. Aviso Legal - Contacto
El uso de este sitio está sujeto a la aceptación de los términos y condiciones (37 usuarios online)