tablaturas, partituras y acordes para guitarra
Busca por banda/artista:
 
y/o título de la canción:
A B C D E F G H I J K L M N O P Q R S T U V W X Y Z 0 1 2 3 4 5 6 7 8 9 / Top 100 tabs
Categorías
Usuarios
usuario:
Darse de alta
password:
Artistas más visitados
Publicidad
TOP acordes y tablaturas de Foo fighters


Estás en: Inicio > Letra F > Acordes y tablaturas de Foo fighters > Cheer up boys, make up is running
Cheer up boys, make up is running
de Foo fighters
Puntúa este acorde/tab:      
(0.6/5)
Reportar este acorde/tab
  Añadir a tus favoritos
  Imprimir
Standard Tuning: EADGBe

{Guitar 1 Grohl,
Guitar 2 Shifty}.)

Intro

Gtr. 1                          (after guitar 2 has play its measure twice)
e | prt1------------------------------ prt2--------------------------------- | 
B | ---------------------------------- ------------------------------------- | 
G | -(b9)(b9)(b9)(b9)(b9)(b9)(b9)(b9)(b9)(b9)(b9)(b9)(b9)(b9)(b9)(b9)- x 4 ---------------------2-2-2-2-2-2- | 
D | -(b9)(b9)(b9)(b9)(b9)(b9)(b9)(b9)(b9)(b9)(b9)(b9)(b9)(b9)(b9)(b9)- -------------------------2-2-2-2-2-2- | 
A | -7-7-7-7-7-7-7-7-7-7-7-7-7-7-7-7-- ------------------4-5-7--0-0-0-0-0-0- | 
E | ---------------------------------- -0/12-0-4-5-7-(0)------------------- | 

Gtr 2.
comes in after guitar 1 part one
e |  | --------------------------------- |  | 
B |  | --------------------------------- |  | 
G |  | --------------------2-2-2-2-2-2-- |  |   x5
D |  | --------------------2-2-2-2-2-2-- |  | 
A |  | -------------4-5-7--0-0-0-0-0-0-- |  | 
E |  | --0-4-5-7-(0)-------------------- |  | 

Both guitars

e |  | --------- |  | 
B |  | --------- |  | 
G |  | -----2-2- |  | 
D |  | -4-4-2-2- |  |  straight into verse
A |  | -4-4-0-0- |  | 
E |  | -2-2----- |  | 

Verse 1
Gtr. 1
e |  | ---------------------------------------------------- |  | 
B |  | ---------------------------------------3-3-3-3-3-3-- |  | 
G |  | --(b9)(b9)(b9)(b9)(b9)(b9)-8-8-8-8-8-8--2-2-2-2-2--2-2-2-2-2-2-- |  |  x 4
D |  | --(b9)(b9)(b9)(b9)(b9)(b9)-(b9)(b9)(b9)(b9)(b9)(b9)-2-2-2-2-2--0-0-0-0-0-0-- |  | 
A |  | --7-7-7-7-7-7--6-6-6-6-6-6--0-0-0-0-0--------------- |  | 
E |  | ---------------------------------------------------- |  | 

Gtr. 2
e |  | -------------------------------------------------------------------- |  | 
B |  | -------------------------------------------------------------------- |  | 
G |  | --(b9)(b9)(b9)(b9)(b9)13-13-13-13br---------------------11-11-11-11-11(b9)(b9)(b9)- |  |  x 4
D |  | --x-x-x-x-x--x--x--x--x----11-11-11-11-11-11---x--x--x--x--x-x-x-x-- |  | 
A |  | --7-7-7-7-7-11-11-11-11br---x--x--x--x--x--x---(b9)-(b9)-(b9)-(b9)-9-7-7-- |  | 
E |  | --0-------------------------(b9)-(b9)-(b9)-(b9)-(b9)-(b9)----------------------- |  | 

Pre chorus
Gtr.1
e |  | -------------------------- |  | 
B |  | -------------------------- |  | 
G |  | --(b9)(b9)(b9)(b9)(b9)(b9)(b9)(b9)(b9)(b9)(b9)(b9) |  | 
D |  | --(b9)(b9)(b9)(b9)(b9)(b9)(b9)(b9)(b9)(b9)(b9)(b9) |  | 
A |  | --7-7-7-7-7-7-7-7-7-7-7-7- |  | 
E |  | -------------------------- |  | 

Gtr. 2
e |  | --------------------------------- |  | 
B |  | --------------------------------- |  | 
G |  | --------------------2-2-2-2-2-2-- |  |   x3
D |  | --------------------2-2-2-2-2-2-- |  | 
A |  | -------------4-5-7--0-0-0-0-0-0-- |  | 
E |  | --0-4-5-7-(0)-------------------- |  | 

Chorus 1
Gtr. 1
e |  | -----------------0-0-0-0-2-2-2--3-3-3-----0-0-0-0--- |  | 
B |  | -----------------0-0-0-0-3-3-3--3-3-3-----0-0-0-0--- |  | 
G |  | -------2-2-2-1-1-1-1-1-1-2-2-2--0-0-0-----1-1-1-1--- |  |  x2
D |  | -4-4-4-2-2-2-2-2-2-2-2-2-0-0-0--0-0-0-2-2-2-2-2-2--- |  | 
A |  | -4-4-4-0-0-0-2-2-2-2-2-2--------2-2-2-2-2-2-2-2-2--- |  | 
E |  | -2-2-2-------0-0-0-0-0-0--------3-3-3-0-0-0-0-0-0--- |  | 

Gtr. 2
e |  | -----------------0-0-0-0--------------------0-0-0-0- |  | 
B |  | -----------------0-0-0-0--------------------0-0-0-0- |  | 
G |  | -------2-2-2-----1-1-1-1-7-7-7-12-12-12-(b9)(b9)(b9)(b9)(b9)(b9) |  |   x2
D |  | -4-4-4-2-2-2-2-2-2-2-2-2-7-7-7-12-12-12-(b9)(b9)(b9)(b9)(b9)(b9) |  | 
A |  | -4-4-4-0-0-0-2-2-2-2-2-2-5-5-5-10-10-10-7-7-7-7-7-7- |  | 
E |  | -2-2-2-------0-0-0-0-0-0---------------------------- |  | 

Verse 2
Gtr. 1
e |  | ---------------------------------------------------- |  | 
B |  | ---------------------------------------3-3-3-3-3-3-- |  | 
G |  | --(b9)(b9)(b9)(b9)(b9)(b9)-8-8-8-8-8-8--2-2-2-2-2--2-2-2-2-2-2-- |  |  x 4
D |  | --(b9)(b9)(b9)(b9)(b9)(b9)-(b9)(b9)(b9)(b9)(b9)(b9)-2-2-2-2-2--0-0-0-0-0-0-- |  | 
A |  | --7-7-7-7-7-7--6-6-6-6-6-6--0-0-0-0-0--------------- |  | 
E |  | ---------------------------------------------------- |  | 

Gtr. 2
e |  | -------------------------------------------------------------------- |  | 
B |  | -------------------------------------------------------------------- |  | 
G |  | --(b9)(b9)(b9)(b9)9/13-13-13-13br---------------------11-11-11-11-11(b9)(b9)(b9)- |  |  x 4
D |  | --x-x-x-x-x--x--x--x--x----11-11-11-11-11-11---x--x--x--x--x-x-x-x-- |  | 
A |  | --7-7-7-7-7/11-11-11-11b----x--x--x--x--x--x---(b9)-(b9)-(b9)-(b9)-9-7-7-- |  | 
E |  | --0-------------------------(b9)-(b9)-(b9)-(b9)-(b9)-(b9)----------------------- |  | 

Pre chorus
Gtr.1
e |  | --------------------------- |  | 
B |  | --------------------------- |  | 
G |  | --(b9)(b9)(b9)(b9)(b9)(b9)(b9)(b9)(b9)(b9)(b9)(b9)- |  | 
D |  | --(b9)(b9)(b9)(b9)(b9)(b9)(b9)(b9)(b9)(b9)(b9)(b9)- |  | 
A |  | --7-7-7-7-7-7-7-7-7-7-7-7-- |  | 
E |  | --------------------------- |  | 

Gtr. 2
e |  | --------------------------------- |  | 
B |  | --------------------------------- |  | 
G |  | --------------------2-2-2-2-2-2-- |  |  x3
D |  | --------------------2-2-2-2-2-2-- |  | 
A |  | -------------4-5-7--0-0-0-0-0-0-- |  | 
E |  | --0-4-5-7-(0)-------------------- |  | 

Chorus 2
Gtr. 1
e |  | -----------------0-0-0-0-2-2-2--3-3-3-----0-0-0-0--- |  | 
B |  | -----------------0-0-0-0-3-3-3--3-3-3-----0-0-0-0--- |  | 
G |  | -------2-2-2-1-1-1-1-1-1-2-2-2--0-0-0-----1-1-1-1--- |  |  x2
D |  | -4-4-4-2-2-2-2-2-2-2-2-2-0-0-0--0-0-0-2-2-2-2-2-2--- |  | 
A |  | -4-4-4-0-0-0-2-2-2-2-2-2--------2-2-2-2-2-2-2-2-2--- |  | 
E |  | -2-2-2-------0-0-0-0-0-0--------3-3-3-0-0-0-0-0-0--- |  | 

Gtr. 2
e |  | -----------------0-0-0-0--------------------0-0-0-0- |  | 
B |  | -----------------0-0-0-0--------------------0-0-0-0- |  | 
G |  | -------2-2-2-----1-1-1-1-7-7-7-12-12-12-(b9)(b9)(b9)(b9)(b9)(b9) |  |   x2
D |  | -4-4-4-2-2-2-2-2-2-2-2-2-7-7-7-12-12-12-(b9)(b9)(b9)(b9)(b9)(b9) |  | 
A |  | -4-4-4-0-0-0-2-2-2-2-2-2-5-5-5-10-10-10-7-7-7-7-7-7- |  | 
E |  | -2-2-2-------0-0-0-0-0-0---------------------------- |  | 

Bridge {The chord progression is E F# G# A G F# E A E}
Gtr.1 PM (Second time play double speed ie 8 times per chord instead of 4)
e |  | -------------------------------------------------------------- |  | 
B |  | ------------------------------------------------------*------- |  | 
G |  | -999(b9)11111111-13131313-14141414-12121212-11111111-999999(b9)--- |  | x 2
D |  | -999(b9)11111111-13131313-14141414-12121212-11111111-999999(b9)--- |  | 
A |  | -7777-(b9)(b9)(b9)(b9)-11111111-12121212-10101010-(b9)(b9)(b9)(b9)-7777777/-- |  | 
E |  | -------------------------------------------------------------- |  | 
*guitar 2 plays A5

Gtr. 2 (appegiated Grt. 1 chords but an octave or so lower)
e |  | -----0~---0~---0~---0~---0~---0~---0~----------- |  | 
B |  | ------0~---0~---0~---0~---0~---0~---0~---------- |  | 
G |  | --------------------------------------2--------- |  |  x2
D |  | ---2----4----6----7----5----4----2----2-2------- |  | 
A |  | --2-2--4-4--6-6--7-7--5-5--4-4--2-2---0-2------- |  | 
E |  | -(0)--(2)--(4)--(5)--(3)--(2)--(0)*-----0-/---- |  | 
*(you could play the root note too as guitar two follow guitar one, just and octave or 
lower)

Solo
Gtr. 1 x 2
e | 0-0-0-0-0-0-0-0-0-0-0-0-0-0-0-0-0-0-0-0-0-0-0-0-0-0-0-0-0-0-0-0-0-0-0-0-0-0-0-0-0-0- | 
B | 5-5-5-3-3h5-0-0-0-0-0-0-3-3-3-3/8-3-5-5-5-5-5-5-5-5-5-3-3h5-0-0-0-0-0-0-3-3-3-3/8-3- | 
G | ------------4-4-4-4-4-4-------------------------------------4-4-4-4-4-4------------- | 
D | ------------------------------------------------------------------------------------ | 
A | ------------------------------------------------------------------------------------ | 
E | ------------------------------------------------------------------------------------ | 

Gtr. 2 (plays Chorus Chords)
e |  | -----------------0-0-0-0--------------------0-0-0-0- |  | 
B |  | -----------------0-0-0-0--------------------0-0-0-0- |  | 
G |  | -------2-2-2-----1-1-1-1-7-7-7-12-12-12-(b9)(b9)(b9)(b9)(b9)(b9) |  |   x2
D |  | -4-4-4-2-2-2-2-2-2-2-2-2-7-7-7-12-12-12-(b9)(b9)(b9)(b9)(b9)(b9) |  | 
A |  | -4-4-4-0-0-0-2-2-2-2-2-2-5-5-5-10-10-10-7-7-7-7-7-7- |  | 
E |  | -2-2-2-------0-0-0-0-0-0---------------------------- |  | 

Post Solo
Both guitars strum
e |  | ----- |  | 
B |  | ----- |  | 
G |  | -9b-- |  | 
D |  | -x--- |  | 
A |  | -7b-- |  | 
E |  | ---- |  | 

Chorus 3
Gtr. 1
e |  | -----------------0-0-0-0-2-2-2--3-3-3-----0-0-0-0--- |  | 
B |  | -----------------0-0-0-0-3-3-3--3-3-3-----0-0-0-0--- |  | 
G |  | -------2-2-2-1-1-1-1-1-1-2-2-2--0-0-0-----1-1-1-1--- |  |  x4
D |  | -4-4-4-2-2-2-2-2-2-2-2-2-0-0-0--0-0-0-2-2-2-2-2-2--- |  | 
A |  | -4-4-4-0-0-0-2-2-2-2-2-2--------2-2-2-2-2-2-2-2-2--- |  | 
E |  | -2-2-2-------0-0-0-0-0-0--------3-3-3-0-0-0-0-0-0--- |  | 

Gtr. 2
e |  | -----------------0-0-0-0--------------------0-0-0-0- |  | 
B |  | -----------------0-0-0-0--------------------0-0-0-0- |  | 
G |  | -------2-2-2-----1-1-1-1-7-7-7-12-12-12-(b9)(b9)(b9)(b9)(b9)(b9) |  |   x4
D |  | -4-4-4-2-2-2-2-2-2-2-2-2-7-7-7-12-12-12-(b9)(b9)(b9)(b9)(b9)(b9) |  | 
A |  | -4-4-4-0-0-0-2-2-2-2-2-2-5-5-5-10-10-10-7-7-7-7-7-7- |  | 
E |  | -2-2-2-------0-0-0-0-0-0---------------------------- |  | 

Outro
e |  | --------------------------------- |  | 
B |  | --------------------------------- |  | 
G |  | -------------------2-2-2-2-2-2--- |  |  x 3
D |  | -------------------2-2-2-2-2-2--- |  | 
A |  | ------------4-5-7--0-0-0-0-0-0--- |  | 
E |  | -0-4-5-7-(0)--------------------- |  | 

Both guitars

e |  | ----------0~-- |  | 
B |  | ----------0~-- |  | 
G |  | -----2-2--1~-- |  | 
D |  | -4-4-2-2--2~-- |  | 
A |  | -4-4-0-0--2~-- |  | 
E |  | -2-2------0~-- |  | 

Structure

Intro
Verse
Chorus
Verse
Chorus
Bridge
Solo
Chorus x 2
Outro 		   
AcordesyTabs.com © 2008 Acordes y Tablaturas para guitarra. Tabs and Chords for guitar. Aviso Legal - Contacto
El uso de este sitio está sujeto a la aceptación de los términos y condiciones (27 usuarios online)