tablaturas, partituras y acordes para guitarra
Busca por banda/artista:
 
y/o título de la canción:
A B C D E F G H I J K L M N O P Q R S T U V W X Y Z 0 1 2 3 4 5 6 7 8 9 / Top 100 tabs
Categorías
Usuarios
usuario:
Darse de alta
password:
Artistas más visitados
Publicidad
TOP acordes y tablaturas de Madina lake


Estás en: Inicio > Letra M > Acordes y tablaturas de Madina lake > One last kiss
One last kiss
de Madina lake
Puntúa este acorde/tab:      
(0.8/5)
Reportar este acorde/tab
  Añadir a tus favoritos
  Imprimir
Tuning: Drop C (C, G, C, F, A, D) Low to high


Legend:

~ = Let Ring

h = Hammer-on

p = Pull-off

. = Palm Mute

/ = Slide Up

 = Slide Down

Intro:

D|-----------------------------|
A|-------------6--6-6--6-6-6-6-|
F|-------------5--5-5--5-5-5-5-|
C|-3-3-3-3-3-3-3--3-3--3-3-3-3-|
G|-3-3-3-3-3-3-3--3-3--3-3-3-3-|
C|-3-3-3-3-3-3-----------------|

D|-----------------------------|
A|-------------6--6-6--8-8-8-8-|
F|-------------5--5-5--7-7-7-7-|
C|-3-3-3-3-3-3-3--3-3--5-5-5-5-|
G|-3-3-3-3-3-3-3--3-3--5-5-5-5-|
C|-3-3-3-3-3-3-----------------|

D|-----------------------------|
A|-------------6--6-6--6-6-6-6-|
F|-------------5--5-5--5-5-5-5-|
C|-0-0--0-0--0-3--3-3--3-3-3-3-|
G|-0-0--0-0--0-3--3-3--3-3-3-3-|
C|-0-0--0-0--0-----------------|

D|-----------------------|
A|-------------6--6-6/9-|
F|-------------5--5-5/8-|
C|-0-0--0-0--0-3--3-3----|
G|-0-0--0-0--0-3--3-3----|
C|-0-0--0-0--0-----------|


D|-----------------------------|
A|-------------6--6-6--6-6-----|
F|-------------5--5-5--5-5-5-5-|
C|-3-3--3-3--3-3--3-3--3-3-3-3-|
G|-3-3--3-3--3-3--3-3--3-3-3-3-|
C|-3-3--3-3--3-----------------|

D|-----------------------------|
A|-------------6--6-6--6-6-----|
F|-------------5--5-5--5-5-5-5-|
C|-0-0--0-0--0-3--3-3--3-3-3-3-|
G|-0-0--0-0--0-3--3-3--3-3-3-3-|
C|-0-0--0-0--0-----------------|

D|-------------------------|
A|-6-6-6-6-6--6-6-6--6-6-6-|
F|-5-5-5-5-5--5-5-5--5-5-5-|
C|-3-3-3-3-3--3-3-3--3-3-3-|
G|-3-3-3-3-3--3-3-3--3-3-3-|
C|-------------------------|

Verse (Piano, transcribed for guitar):

D|----20----18----17----18----20-------------------|
A|-18----18----18----18----18----18-17-18-17-18-17-|
F|-------------------------------------------------|
C|-------------------------------------------------| x4
G|-------------------------------------------------|
C|-------------------------------------------------|

Verse (Guitar One):

D|----------|
A|----------|
F|----------|
C|-3-3--3-3-|
G|-3-3--3-3-|
C|-3-3--3-3-|

D|--------------|
A|--------------|
F|--------------|
C|-3-3--3-3---5-|
G|-3-3--3-3---5-|
C|-3-3--3-3---5-|

D|----------|
A|----------|
F|----------|
C|-0-0--0-0-|
G|-0-0--0-0-|
C|-0-0--0-0-|

D|--------------|
A|--------------|
F|--------------|
C|-0-0--0-0---5-|
G|-0-0--0-0---5-|
C|-0-0--0-0---5-|

D|----------|
A|----------|
F|----------|
C|-3-3--3-3-|
G|-3-3--3-3-|
C|-3-3--3-3-|


D|--------------|
A|--------------|
F|--------------|
C|-3-3--3-3---5-|
G|-3-3--3-3---5-|
C|-3-3--3-3---5-|

D|----------|
A|----------|
F|----------|
C|-0-0--0-0-|
G|-0-0--0-0-|
C|-0-0--0-0-|

D|----------------|
A|----------------|
F|----------------|
C|-0-0-0-0-0--0-0-|
G|-0-0-0-0-0--0-0-|
C|-0-0-0-0-0--0-0-|


Verse (Guitar Two):

D|------------------------------------------|
A|-----6-6-5-5-6-6-6--------6-6-5-5-6-6-/8-|
F|-5-5------------------5-5-----------------|
C|------------------------------------------| x3
G|------------------------------------------|
C|------------------------------------------|

D|-------------------|
A|-----6-6-5-5-6-6-6-|
F|-5-5---------------|
C|-------------------|
G|-------------------|
C|-------------------|
C|-------------------|


Chorus (Guitar One):

D|------------------------------------------------------------------------------------|
A|------------------------------------------------------------------------------------|
F|------------------------------------------------------------------------------------|
C|-8-8-8-8---8-8-8-10-10-10-10---10-10-10-12-12-12-12---12-12-12-12-12-12-12---12-12-|
G|-8-8-8-8---8-8-8-10-10-10-10---10-10-10-12-12-12-12---12-12-12-12-12-12-12---12-12-|
C|-8-8-8-8---8-8-8-10-10-10-10---10-10-10-12-12-12-12---12-12-12-12-12-12-12---12-12-|

D|----------------------------------------------------------------------|
A|----------------------------------------------------------------------|
F|----------------------------------------------------------------------|
C|-8-8-8-8---8-8-8-10-10-10-10---10-10-10-0-0-0-0---0-0-0-0-0-0-0---0-0-|
G|-8-8-8-8---8-8-8-10-10-10-10---10-10-10-0-0-0-0---0-0-0-0-0-0-0---0-0-|
C|-8-8-8-8---8-8-8-10-10-10-10---10-10-10-0-0-0-0---0-0-0-0-0-0-0---0-0-|


Chorus (Guitar Two):

D|----------------------------------12----13----13-|
A|----13----11----10----11----13-------------------|
F|-10----10----10----10----10----10----10----10----|
C|-------------------------------------------------| x4
G|-------------------------------------------------|
C|-------------------------------------------------|


Verse (Piano, transcribed for guitar):

D|----20----18----17----18----20-------------------|
A|-18----18----18----18----18----18-17-18-17-18-17-|
F|-------------------------------------------------|
C|-------------------------------------------------| x4
G|-------------------------------------------------|
C|-------------------------------------------------|

Verse (Guitar One):

D|----------|
A|----------|
F|----------|
C|-3-3--3-3-|
G|-3-3--3-3-|
C|-3-3--3-3-|

D|--------------|
A|--------------|
F|--------------|
C|-3-3--3-3---5-|
G|-3-3--3-3---5-|
C|-3-3--3-3---5-|

D|----------|
A|----------|
F|----------|
C|-0-0--0-0-|
G|-0-0--0-0-|
C|-0-0--0-0-|

D|--------------|
A|--------------|
F|--------------|
C|-0-0--0-0---5-|
G|-0-0--0-0---5-|
C|-0-0--0-0---5-|

D|----------|
A|----------|
F|----------|
C|-3-3--3-3-|
G|-3-3--3-3-|
C|-3-3--3-3-|

D|--------------|
A|--------------|
F|--------------|
C|-3-3--3-3---5-|
G|-3-3--3-3---5-|
C|-3-3--3-3---5-|

D|----------|
A|----------|
F|----------|
C|-0-0--0-0-|
G|-0-0--0-0-|
C|-0-0--0-0-|

D|----------------|
A|----------------|
F|----------------|
C|-0-0-0-0-0--0-0-|
G|-0-0-0-0-0--0-0-|
C|-0-0-0-0-0--0-0-|


Verse (Guitar Two):

D|------------------------------------------|
A|-----6-6-5-5-6-6-6--------6-6-5-5-6-6-/8-|
F|-5-5------------------5-5-----------------|
C|------------------------------------------| x3
G|------------------------------------------|
C|------------------------------------------|

D|-------------------|
A|-----6-6-5-5-6-6-6-|
F|-5-5---------------|
C|-------------------|
G|-------------------|
C|-------------------|


Chorus (Guitar One):

D|------------------------------------------------------------------------------------|
A|------------------------------------------------------------------------------------|
F|------------------------------------------------------------------------------------|
C|-8-8-8-8---8-8-8-10-10-10-10---10-10-10-12-12-12-12---12-12-12-12-12-12-12---12-12-|
G|-8-8-8-8---8-8-8-10-10-10-10---10-10-10-12-12-12-12---12-12-12-12-12-12-12---12-12-|
C|-8-8-8-8---8-8-8-10-10-10-10---10-10-10-12-12-12-12---12-12-12-12-12-12-12---12-12-|

D|----------------------------------------------------------------------|
A|----------------------------------------------------------------------|
F|----------------------------------------------------------------------|
C|-8-8-8-8---8-8-8-10-10-10-10---10-10-10-0-0-0-0---0-0-0-0-0-0-0---0-0-|
G|-8-8-8-8---8-8-8-10-10-10-10---10-10-10-0-0-0-0---0-0-0-0-0-0-0---0-0-|
C|-8-8-8-8---8-8-8-10-10-10-10---10-10-10-0-0-0-0---0-0-0-0-0-0-0---0-0-|


Chorus (Guitar Two):

D|----------------------------------12----13----13-|
A|----13----11----10----11----13-------------------|
F|-10----10----10----10----10----10----10----10----|
C|-------------------------------------------------| x4
G|-------------------------------------------------|
C|-------------------------------------------------|

Repeat Chorus once.


Breakdown:

D|-------------------------------------------------------------|
A|-6-6-6-6-----6-6-----6-6-6-6-----6-6-6-6-----6-6-----5-5-5-5-|
F|-5-5-5-5-----5-5-----5-5-5-5-----5-5-5-5-----5-5-----5-5-5-5-|
C|-------------------------------------------------------------|
G|---------6-6-----6-6---------------------6-6-----6-6---------|
C|-------------------------------------------------------------|

D|-------------------------------------------------------------|
A|-6-6-6-6-----6-6-----6-6-6-6-----6-6-6-6-----6-6-----5-5-5-5-|
F|-5-5-5-5-----5-5-----5-5-5-5-----5-5-5-5-----5-5-----5-5-5-5-|
C|-3-3-3-3-0-0-3-3-0-0-3-3-3-3-----3-3-3-3-0-0-3-3-0-0-3-3-3-3-|
G|---------0-0-----0-0---------------------0-0-----0-0---------|
C|---------0-0-----0-0---------------------0-0-----0-0---------|

D|----------------------------------------------------------|
A|-6-6-6-6-----6-6-----6-6-6-6-----6-6-6-6-----6-6----------|
F|-5-5-5-5-----5-5-----5-5-5-5-----5-5-5-5-----5-5----------|
C|-3-3-3-3-0-0-3-3-0-0-3-3-3-3-----3-3-3-3-0-0-3-3-0-0-/10-|
G|---------0-0-----0-0---------------------0-0-----0-0-/10-|
C|---------0-0-----0-0---------------------0-0-----0-0-/10-|

D|-------------------------------------------------------------------------|
A|-------------------------------------------------------------------------|
F|-------------------------------------------------------------------------|
C|-3-3-3-3-3-3-3-3-7-7-7-7-7-7-7-7-0-0-0-0-0-0-0-0-10-10-10-10-10-10-10-10-| x2
G|-3-3-3-3-3-3-3-3-7-7-7-7-7-7-7-7-0-0-0-0-0-0-0-0-10-10-10-10-10-10-10-10-|
C|-3-3-3-3-3-3-3-3-7-7-7-7-7-7-7-7-0-0-0-0-0-0-0-0-10-10-10-10-10-10-10-10-|

D|-----------------------------------|
A|-----------------------------------|
F|-----------------------------------|
C|10-10-10-10-10--10-10-10--10-10-10-|
G|10-10-10-10-10--10-10-10--10-10-10-|
C|10-10-10-10-10--10-10-10--10-10-10-|


Chorus (Guitar Two starts alone):

D|----20----18----17----18----20--------------|
A|-18----18----18----18----18----18-17-18-17-|
F|--------------------------------------------|
C|--------------------------------------------|
G|--------------------------------------------|
C|--------------------------------------------|

Chorus (Guitar One comes in):

D|------------------------------------------------------------------------------------|
A|------------------------------------------------------------------------------------|
F|------------------------------------------------------------------------------------|
C|-8-8-8-8---8-8-8-10-10-10-10---10-10-10-12-12-12-12---12-12-12-12-12-12-12---12-12-|
G|-8-8-8-8---8-8-8-10-10-10-10---10-10-10-12-12-12-12---12-12-12-12-12-12-12---12-12-|
C|-8-8-8-8---8-8-8-10-10-10-10---10-10-10-12-12-12-12---12-12-12-12-12-12-12---12-12-|

D|----------------------------------------------------------------------|
A|----------------------------------------------------------------------|
F|----------------------------------------------------------------------|
C|-8-8-8-8---8-8-8-10-10-10-10---10-10-10-0-0-0-0---0-0-0-0-0-0-0---0-0-| Repeat whole 
for Guitar One once.
G|-8-8-8-8---8-8-8-10-10-10-10---10-10-10-0-0-0-0---0-0-0-0-0-0-0---0-0-|
C|-8-8-8-8---8-8-8-10-10-10-10---10-10-10-0-0-0-0---0-0-0-0-0-0-0---0-0-|


D|----------------------------------12----13----13-|
A|----13----11----10----11----13-------------------|
F|-10----10----10----10----10----10----10----10----|
C|-------------------------------------------------| x7
G|-------------------------------------------------|
C|-------------------------------------------------|


Outro:

D|-------------------------------------------------------------|
A|-6-6-6-6-----6-6-----6-6-6-6-----6-6-6-6-----6-6-----5-5-5-5-|
F|-5-5-5-5-----5-5-----5-5-5-5-----5-5-5-5-----5-5-----5-5-5-5-|
C|-3-3-3-3-0-0-3-3-0-0-3-3-3-3-----3-3-3-3-0-0-3-3-0-0-3-3-3-3-|
G|---------0-0-----0-0---------------------0-0-----0-0---------|
C|---------0-0-----0-0---------------------0-0-----0-0---------|

D|-----------------------------------------------------------------------|
A|-6-6-6-6-----6-6-----6-6-6-6-----6-6-6-6-----6-6-----5-5-5-6~----------|
F|-5-5-5-5-----5-5-----5-5-5-5-----5-5-5-5-----5-5-----5-5-5-5~----------|
C|-3-3-3-3-0-0-3-3-0-0-3-3-3-3-----3-3-3-3-0-0-3-3-0-0-3-3-3-3~------15-|
G|---------0-0-----0-0---------------------0-0-----0-0---------------15-|
C|---------0-0-----0-0---------------------0-0-----0-0---------------15-|		   
AcordesyTabs.com © 2008 Acordes y Tablaturas para guitarra. Tabs and Chords for guitar. Aviso Legal - Contacto
El uso de este sitio está sujeto a la aceptación de los términos y condiciones (29 usuarios online)