tablaturas, partituras y acordes para guitarra
Busca por banda/artista:
 
y/o título de la canción:
A B C D E F G H I J K L M N O P Q R S T U V W X Y Z 0 1 2 3 4 5 6 7 8 9 / Top 100 tabs
Categorías
Usuarios
usuario:
Darse de alta
password:
Artistas más visitados
Publicidad
TOP acordes y tablaturas de Rush


Estás en: Inicio > Letra R > Acordes y tablaturas de Rush > Spindrift
Spindrift
de Rush
Puntúa este acorde/tab:      
(0.6/5)
Reportar este acorde/tab
  Añadir a tus favoritos
  Imprimir
Intro-Gtr 1- Clean, Delay                  Repeat 4 times
e | --------------------------------------------------------------------------- | 
B | --------------------------------------------------------------------------- | 
G | --------0-----0-----0------0-----0------0------0--------------------------- | 
D | --------5-----5-----3------5-----3------0------0--------------------------- | 
A | --------------------------------------------------------------------------- | 
E | --------------------------------------------------------------------------- | 

Gtr 1 continues
Gtr 2- Clean tone
e | --------------------------------------------------------------------------- | 
B | --------------------------------------------------------------------------- | 
G | --------------------------------------------------------------------------- | 
D | --------------------------------------------------------------------------- | 
A | -------------------------5--4------------5--4-------------------------5--4- | 
E | ---1--2------1--2-----------------------------------1--2------1--2--------- | 

Rhy. Fig 1
Gtr 3- Heavy Distortion                  Play with Verse 1&3
e | --------------------------------------------------------------------------- | 
B | --------------------------------------------------------------------------- | 
G | ---7---6-----------7---6--------------------------------------------------- | 
D | -----------------------------------3---4-------------3---4----------------- | 
A | ---5---4-----0-----5---4----0----------------3-----------------3----------- | 
E | -----------------------------------1---2-------------1---2----------------- | 

Gtr 5- Clean Tone            Both guitars to be played together during “Ooh”
e | -------5-------5-------5-------5-------5-------5-------5-------5----------- | 
B | -----8---8---8---8---8---8---8---8---8---8---8---8---8---8---8---8--------- | 
G | ---7-------7-------7-------7-------5-------5-------6-------6--------------- | 
D | --------------------------------------------------------------------------- | 
A | --------------------------------------------------------------------------- | 
E | --------------------------------------------------------------------------- | 
  | Rhy. Fig. 2
  | Gtr 4- Heavy Distortion                          |   
e | --------------------------------------------------------------------------- | 
B | --------------------------------------------------------------------------- | 
G | --3-3-3-3-3-3-3-3---4-4-4-4-4-4-4-4---5-5-5-5-5-5-5-5---2-2-2-2-2-2-2-2---- | 
D | --3-3-3-3-3-3-3-3---3-3-3-3-3-3-3-3---3-3-3-3-3-3-3-3---2-2-2-2-2-2-2-2---- | 
A | --1-1-1-1-1-1-1-1---2-2-2-2-2-2-2-2---3-3-3-3-3-3-3-3---4-4-4-4-4-4-4-4---- | 
E | --------------------------------------------------------------------------- | 

Verses 2&4 with Rhy.Fig.1 2x

2nd time only
Gtr 6- Distortion
e | -----10------(b9)----------10------(b9)---------------------------------------- | 
B | ------------------------------------------6-----7---------6-----7---------- | 
G | -----7-------6-----------7-------6----------------------------------------- | 
D | ------------------------------------------3-----4---------3-----4---------- | 
A | --------------------------------------------------------------------------- | 
E | --------------------------------------------------------------------------- | 

Guitar Solo

e | ------------------0--0--0--0----0---0----------------0-0-0---0---0-0------- | 
B | --1/3--3--3-3-3---5--5--8--5----3---5---3h5r3--------1-1-1---1---1-1------- | 
G | --------------------------------------------------------------------------- | 
D | --------------------------------------------------------------------------- | 
A | --------------------------------------------------------------------------- | 
E | --------------------------------------------------------------------------- | 

e | ---0-0-0-------------------------------0--0--3--0------0--0---------------- | 
B | ---5-5-5—5---3-----1/3--3-3--3-3-----5--5--5--5------3--5---3/5-------- | 
G | --------------------------------------------------------------------------- | 
D | --------------------------------------------------------------------------- | 
A | --------------------------------------------------------------------------- | 
E | --------------------------------------------------------------------------- | 

e | --0--0-0---0----0--0------0--0--0------------------------------------------ | 
B | --1--1-1---1----1--1------5--5--5---5--3-----3---------------------------- | 
G | --------------------------------------------------------------------------- | 
D | --------------------------------------------------------------------------- | 
A | --------------------------------------------------------------------------- | 
E | --------------------------------------------------------------------------- | 

 |  /  slide up
 |    slide down
 |  h  hammer-on
 |  p  pull-off
 |  ~  vibrato
 |  +  harmonic
 |  x  Mute note 		   
AcordesyTabs.com © 2008 Acordes y Tablaturas para guitarra. Tabs and Chords for guitar. Aviso Legal - Contacto
El uso de este sitio está sujeto a la aceptación de los términos y condiciones (18 usuarios online)