tablaturas, partituras y acordes para guitarra
Busca por banda/artista:
 
y/o título de la canción:
A B C D E F G H I J K L M N O P Q R S T U V W X Y Z 0 1 2 3 4 5 6 7 8 9 / Top 100 tabs
Categorías
Usuarios
usuario:
Darse de alta
password:
Artistas más visitados
Publicidad
TOP acordes y tablaturas de 3 Doors Down


Kryptonite
de 3 Doors Down
Puntúa este acorde/tab:      
(0.5/5)
Reportar este acorde/tab
  Añadir a tus favoritos
  Imprimir
#-----------------------------------------------------------------------------#
#-- File created with Instab - http://www.pconline.com/~smcarey/instab.html --#
#-----------------------------------------------------------------------------#

Author/Artist: three doors down
Title: kryptonite
Transcribed by: Thaddeus Portz
Email: dirtbike_kid86@yahoo.com

i think this is right have fun

----------------|-----------------|----------------|--------------------------
-------3--------|---------------0-|--------3-------|---------------0----------
-----4---4---0--|------0-------2--|------4---4---0-|------0------2------------
---4-------4----|----0-------2----|----4-------4---|----0------2--------------
-2--------------|--2-------0------|--2-------------|--2------0----------------
----------------|3----------------|----------------|3-------------------------
                                                                              

---------------|----------------|--------------|----------0-------------------
-------3-------|---------------0|------3-------|------------0-----------------
-----4---4---0-|-------0-----2--|----4---4---0-|------0-------0---------------
---4-------4---|-----0-----2----|--4-------4---|----0-------------------------
-2-------------|---2-----0------|2-------------|--2-----0---------------------
---------------|-3--------------|--------------|3-----------------------------
 Riff:A    Rhythm part: Bm       G     A     Bm              G     A          

---------------|-----------2--|---2---------5--|-3--2----0-2------------------
---3--2---3----|--3---2------2|------2---3-----|-------2----------------------
-4-----------2-|---------2----|-4--------------|------------------------------
---------------|--------------|----------------|------------------------------
---------------|--------------|----------------|------------------------------
---------------|--------------|----------------|------------------------------
 Riff:B     Rhythm Part: Bm       G   A     Bm       G    A                   

------------------------------------------------------------------------------
------------------------------------------------------------------------------
------------------------------------------------------------------------------
------------------------------------------------------------------------------
----4--5--4-5-4/7--5--4--5--4----------------------575757574545450------------
-7----------------------------5--7--75-57--5-57-7-----------------------------
 Riff:C     Rhythm Part Riffc-d:B5      G5   A5   B5     E5      E5       F#5 

-2------------0--------------2-----2-----------0----3--2------0-2-------------
----2--2--3--------3---2--------2----2--2--3---------------2------------------
--------------------------2---------------------------------------------------
------------------------------------------------------------------------------
------------------------------------------------------------------------------
------------------------------------------------------------------------------
 Riff:D                                                                       

---------------------0------------------------------------0-0-----------------
-------3---2----------------3-3-3-2-----------3---2---------------3-3-3-3-----
-4---4---------2---------2-----------4-----4---------2---------2--------------
---4------------------------------------4-------------------------------------
------------------------------------------------------------------------------
------------------------------------------------------------------------------
 Riff:E                                                                       

--2---------2--------3--------------------------------------------------------
----2---------2--------3------------------------------------------------------
------4---------2--------4----------------------------------------------------
------------------------------------------------------------------------------
------------------------------------------------------------------------------
------------------------------------------------------------------------------
 Riff:F      Rhythm Part:Bm    A   G     Bm       A    G                      

		   
AcordesyTabs.com © 2008 Acordes y Tablaturas para guitarra. Tabs and Chords for guitar. Aviso Legal - Contacto
El uso de este sitio está sujeto a la aceptación de los términos y condiciones (26 usuarios online)