tablaturas, partituras y acordes para guitarra
Busca por banda/artista:
 
y/o título de la canción:
A B C D E F G H I J K L M N O P Q R S T U V W X Y Z 0 1 2 3 4 5 6 7 8 9 / Top 100 tabs
Categorías
Usuarios
usuario:
Darse de alta
password:
Artistas más visitados
Publicidad
TOP acordes y tablaturas de The cure


Estás en: Inicio > Letra T > Acordes y tablaturas de The cure > Killing an arab
Killing an arab
de The cure
Puntúa este acorde/tab:      
(0.3/5)
Reportar este acorde/tab
  Añadir a tus favoritos
  Imprimir
Pattern I
=========
    e   e   e   e   e   e   e   e        e   e   e   e   e   e   e   e         
G-|---------7---------------6----------|---------5---------------4------------|
D-|-(b9)--(b9)------(b9)-8---8-------8-----|-7---7-------7--6---6-------6-----------|
A-|------------------------------------|--------------------------------------|
E-|------------------------------------|--------------------------------------|

    e   e   e   e   e   e   e   e        e   e   e   e   h                     
G-|---------3---------------2----------|---------1----------------------------|
D-|-5---5-------5--4---4-------4-----|-3---3-------3--2-----------------------|
A-|------------------------------------|--------------------------------------|
E-|------------------------------------|--------------------------------------|

Pattern II
==========                                                            
    e   e   e   e   e   e   e   e        e   e   e^^e^^e   q      q         
G-|------------------------------------|--------------------------------------|
D-|-2---2---2-------2---2---2---2------|-----2---2-----2---3------6-----------|
A-|-------------R----------------------|-R----------R-------------------------|
E-|------------------------------------|--------------------------------------|

Pattern III
===========
    e   e   e   e   e   e   e   e        e   e   e^^e^^e   q      q         
G-|------------------------------------|--------------------------------------|
D-|-7---7---7-------7---7---7---7------|-----7---7-----7---8------11---------|
A-|-------------R----------------------|-R----------R-------------------------|
E-|------------------------------------|--------------------------------------|

Intro :		Drums & Guitar
		Pattern I
		Pattern II  (x4)

1st Verse :	Pattern II  (x4)

Chorus :	Pattern III (x2)
		Pattern II  (x2)

2nd Verse : 	same as 1st

Chorus.

Instrumental bridge :	Pattern II    (x4)
			Pattern III   (x2)
			Pattern II    (x4)

3rd Verse :	same as 1st

Chorus.

Outro :		Pattern II  (x4)
		Pattern I      
		Guitar ends.		   
AcordesyTabs.com © 2008 Acordes y Tablaturas para guitarra. Tabs and Chords for guitar. Aviso Legal - Contacto
El uso de este sitio está sujeto a la aceptación de los términos y condiciones (13 usuarios online)