tablaturas, partituras y acordes para guitarra
Busca por banda/artista:
 
y/o título de la canción:
A B C D E F G H I J K L M N O P Q R S T U V W X Y Z 0 1 2 3 4 5 6 7 8 9 / Top 100 tabs
Categorías
Usuarios
usuario:
Darse de alta
password:
Artistas más visitados
Publicidad
TOP acordes y tablaturas de Megadeth


Estás en: Inicio > Letra M > Acordes y tablaturas de Megadeth > Wanderlust
Wanderlust
de Megadeth
Puntúa este acorde/tab:      
(0.2/5)
Reportar este acorde/tab
  Añadir a tus favoritos
  Imprimir
intro:

E|-------------------------------------------------
B|-3---3-3-3---3---3-3-3---3---3-3-3---3---3-------
G|-2---2-2-2-h-3---3-3-3-h-5---5-5-5--4---4---0---
D|---0-----------0-----------0-----------0---------
A|-------------------------------------------------
E|-------------------------------------------------

E|----------------------
B|--3---3----3---3------
G|--2---3----2---3------
D|--0---0----0---0------
A|----------------------
E|----------------------

then: (this section may be played with the open D string, it's
difficult to tell|

E|-----------------------------------------------------------
B|----3---3---------3---3---------3---3---3---------3---3----
G|--2---2---2-2-h-3---3---3-3-h-5---5---5---5-5--4---4---0--
D|-----------------------------------------------------------
A|-----------------------------------------------------------
E|-----------------------------------------------------------

E|-----------------0-----0-----------
B|--3-3-3--3---3-----3-----3---------
G|--2-2-2--2-h-3-------3-----3--0----
D|--0-0-0--0---0---------------------
A|-----------------------------------
E|-----------------------------------

chorus:

G|--5--x-x-------------------------
D|--5--x-x--5---5---5-x-x--7-------
A|--3--x-x--5---5---5-x-x--5-------
E|----------3---3---3-x-x--5-------

G|--------------------------------
D|------3-x-x--5--x-x--3-x-x--7---
A|------3-x-x--5--x-x--3-x-x--5---
E|-0-0--1-x-x--3--x-x--1-x-x--5---

interlude:

E|--------0----0-0--2-2-----
B|------3---3--3-3--3-3-----
G|----2--------2-2--2-2-----
D|--0-----------------------
A|--------------------------
E|--------------------------

E|--------0----0-0--3-2-----
B|------3---3--3-3--3-3-----
G|----2--------2-2--2-2-----
D|--0-----------------------
A|--------------------------
E|--------------------------

chords for the faster part:

E|---------------------5------
B|---------6-----8-----5------
G|---7-----7-----7-----7------
D|---7-----7-----7-----7------
A|---5-----5-----5-----5------
E|----------------------------

"the game I play..."

G|---5-5-5-5-5----7-7-7-7-7-----
D|---5-5-5-5-5----7-7-7-7-7-----
A|---3-3-3-3-3----5-5-5-5-5-----
E|------------------------------		   
AcordesyTabs.com © 2008 Acordes y Tablaturas para guitarra. Tabs and Chords for guitar. Aviso Legal - Contacto
El uso de este sitio está sujeto a la aceptación de los términos y condiciones (16 usuarios online)