tablaturas, partituras y acordes para guitarra
Busca por banda/artista:
 
y/o título de la canción:
A B C D E F G H I J K L M N O P Q R S T U V W X Y Z 0 1 2 3 4 5 6 7 8 9 / Top 100 tabs
Categorías
Usuarios
usuario:
Darse de alta
password:
Artistas más visitados
Publicidad
TOP acordes y tablaturas de Yngwie malmsteen


Dream on
de Yngwie malmsteen
Puntúa este acorde/tab:      
(0.7/5)
Reportar este acorde/tab
  Añadir a tus favoritos
  Imprimir
e|-4-----4-----3-----3-----4-----4-----3-----3----|
B|-6-----6-----4-----4-----3-----3-----2-----2----|
G|----5-----5-----5-----5-----5-----5-----5-----5-|
D|------------------------------------------------|
A|------------------------------------------------|
E|------------------------------------------------|


-4-----4-----6-----6------8-----8------8-|
-6-----6-----8-----8------(b9)----(b9)-----(b9)|
----5-----5-----5-----5------------------|
----------------------------10----10-----|
-----------------------------------------|
-----------------------------------------|

gt1
e|-4-----4-----3-----3-----4-----4-----3-----3----|
B|-6-----6-----4-----4-----3-----3-----2-----2----|
G|----5-----5-----5-----5-----5-----5-----5-----5-|
D|------------------------------------------------|
A|------------------------------------------------|
E|------------------------------------------------|

gt2
e|-17bf----17bf~~~~~~~--------------------------------------------------------------|
B|----------------------20bf--20bf~~~--20-17----------------------------------------|
G|-------------------------------------------20-17-18-17----------------------------|
D|-------------------------------------------------------20-17-18-17-18-17----------|
A|-------------------------------------------------------------------------20-20~~~-|
E|----------------------------------------------------------------------------------|

gt1
-4-----4-----6-----6------8-----8-----6-----6-|
-6-----6-----8-----8------(b9)----(b9)----8-----8-|
----5-----5-----5-----5--------------------5----|
----------------------------10----10------------|
------------------------------------------------|
------------------------------------------------|

gt2
e|-------------------------------------------------------21bf--21-18-1(b9)18-------------18-|
B|-------------------------------------------------------------------------21-18-1(b9)21----|
G|----------15-16-18--17-18-17-------------17-18-17~~~~-----------------------------------|
D|-14-15-17--------------------20-17-18-20------------------------------------------------|
A|----------------------------------------------------------------------------------------|
E|----------------------------------------------------------------------------------------|

gt1
--8-----8-----6-4-----4--3-----3-----3-----3----|
--(b9)----(b9)----8-6-----6--2--1--2--1--2--1--2--1-|
-----7-----7--------7----------------------------|
-------------------------------------------------|
-------------------------------------------------|
-------------------------------------------------|

gt2
e|-1(b9)18~~~~---------------------15-16-18--17-18-20--18-1(b9)21-21bf--18h1(b9)16h18-14h16--|
B|------------15-16-18--17-18-20-------------------------------------------------------|
G|-------------------------------------------------------------------------------------|
D|-------------------------------------------------------------------------------------|
A|-------------------------------------------------------------------------------------|
E|-------------------------------------------------------------------------------------|

gt2
e|-18h1(b9)16h18-14h16-12h14--10h12--13~~--17h20p17--------------------------------------|
B|------------------------------------------------------20p17-20bf-20b--21-20-18-20-21-|
G|------------------------------------------------19~~~--------------------------------|
D|-------------------------------------------------------------------------------------|
A|-------------------------------------------------------------------------------------|
E|-------------------------------------------------------------------------------------|

gt2
e|--------------------------------------------------------------|
B|-20-18-20-21-20---21-20-18------------------------------------|
G|---------------------------21-20-18---------------------------|
D|------------------------------------20-1(b9)17------------------|
A|----------------------------------------------20-1(b9)17--20~~~-|
E|--------------------------------------------------------------|

verse
everytime time when i look in the mirror...
-4-----4-----3-----3-----4-----4-----3-----3----|
-6-----6-----5-----5-----6-----6-----6-----6----|
----5-----5-----5-----5-----5-----5-----5-----5-|
------------------------------------------------|
------------------------------------------------|
------------------------------------------------|

to play...
-3-----3-----3-----3-----3-----3-----3-----3----|
-2--1--2--1--2--1--2--1--2--1--2--1--2--1--2--1-|
------------------------------------------------|
------------------------------------------------|
------------------------------------------------|
------------------------------------------------|

i know nobody knows...
e|-------------------------------------------------|
B|-------------------------------------------------|
G|-10-10-10-10-10--8-8-8-8-8--6-6-6-6-6--8-8-8-8-8-|
D|-10-10-10-10-10--8-8-8-8-8--6-6-6-6-6--8-8-8-8-8-|
A|-8--8--8--8--8---6-6-6-6-6--4-4-4-4-4--6-6-6-6-6-|
E|-------------------------------------------------|


e|-----------------------------------------------|
B|-9p8-------------------------------------------|
G|-----10-8-10---12b--13b--14b--14p12------------|
D|------------------------------------15~~~------|
A|-----------------------------------------------|
E|-----------------------------------------------|



e|-4-----4-----3-----3-----4-----4-----3-----3----|
B|-6-----6-----4-----4-----3-----3-----2-----2----|
G|----5-----5-----5-----5-----5-----5-----5-----5-|
D|------------------------------------------------|
A|------------------------------------------------|
E|------------------------------------------------|


-4-----4-----6-----6------8-----8------8-|
-6-----6-----8-----8------(b9)----(b9)-----(b9)|
----5-----5-----5-----5------------------|
----------------------------10----10-----|
-----------------------------------------|
-----------------------------------------|


e|-18--16-15----------15-------16-15----|
B|------------16----------18bf-------18-|
G|----------------17--------------------|
D|--------------------------------------|
A|--------------------------------------|
E|--------------------------------------|


verse
half my life in books written pages...
-4-----4-----3-----3-----4-----4-----3-----3----|
-6-----6-----5-----5-----6-----6-----6-----6----|
----5-----5-----5-----5-----5-----5-----5-----5-|
------------------------------------------------|
------------------------------------------------|
------------------------------------------------|


sing with me sing for the years...
e|-------------------------------------------------|
B|-------------------------------------------------|
G|-10-10-10-10-10--8-8-8-8-8--6-6-6-6-6--8-8-8-8-8-|
D|-10-10-10-10-10--8-8-8-8-8--6-6-6-6-6--8-8-8-8-8-|
A|-8--8--8--8--8---6-6-6-6-6--4-4-4-4-4--6-6-6-6-6-|
E|-------------------------------------------------|

|----------------------------------------------------------------------|
|----------------------------------------------------------------------|
|----------------------------------------------------------------------|
|----------------------------------------------------------------------|
|-8-8-8-8-8-8--10-10-10-10-10-10--11-11-11-11-11-11--13-13-13-13-13-13-|
|----------------------------------------------------------------------|


      repete               repete            repete              repete
e|----16-1(b9)16h18p16-|-------------------|-------------------|-------------------|-------
B|-1(b9)---------------|-16-1(b9)16h18p16----|-------------------|-------------------|-------
G|-------------------|----------------18-|-16-1(b9)16h18p16----|-------------------|-------
D|-------------------|-------------------|----------------1(b9)|-16-1(b9)16h18p16----|-------
A|-------------------|-------------------|-------------------|----------------1(b9)|-------
E|-------------------|-------------------|-------------------|-------------------|-------

e|-----------------------------------------------|
B|-----------------------------------------------|
G|-----------------------------------------------|
D|-----------------------------------------------|
A|-16-1(b9)16h18p16--------------------------------|
E|----------------1(b9)16h18p16--18-16-18-16-18-16-|


|-14~~~~~~---14-12h14p12-------------------------------------------------------------------|
|------------------------15-12h14p12-------15-12h14p12-------15-12-14-12-------------------|
|------------------------------------15p12-------------15p12-------------15p12-14-12-14-14b|
|----------------------------------------------------------------------------		   
AcordesyTabs.com © 2008 Acordes y Tablaturas para guitarra. Tabs and Chords for guitar. Aviso Legal - Contacto
El uso de este sitio está sujeto a la aceptación de los términos y condiciones (27 usuarios online)