tablaturas, partituras y acordes para guitarra
Busca por banda/artista:
 
y/o título de la canción:
A B C D E F G H I J K L M N O P Q R S T U V W X Y Z 0 1 2 3 4 5 6 7 8 9 / Top 100 tabs
Categorías
Usuarios
usuario:
Darse de alta
password:
Artistas más visitados
Publicidad
TOP acordes y tablaturas de Megadeth


Estás en: Inicio > Letra M > Acordes y tablaturas de Megadeth > The doctor is calling
The doctor is calling
de Megadeth
Puntúa este acorde/tab:      
(0.3/5)
Reportar este acorde/tab
  Añadir a tus favoritos
  Imprimir
intro riff:

D|----4-----------------------
A|---------5----4---3---------
E|--2---2-----2---2----2--0---

D|----4-----------------------
A|---------5----4---3---------
E|--2---2----2---2----0--3----

verse:

D|--4-------/-7------4------------------------
A|--x---------x------x------------------------
E|--2--0-0--/-5--0-h-2-2-2-2-2-2-2-2-2-2-2----

D|--4-4-----/7------4-----
A|--x-x------x------x-----
E|--2-2-0-0-/5--0-h-2-----

D|--4-4-------/-7--------
A|--x-x---------x--------
E|--2-2--0-0--/-5--0-----

D|--4-4-----/7------4-----
A|--x-x------x------x-----
E|--2-2-0-0-/5--0-h-2-----

G|------------6--4--4----
D|--4-4-------x---x--x----
A|--x-x-------4--2--2----
E|--2-2-0-0---------------

last time:

D|--4-4--5-5-----
A|--x-x--x-x-----
E|--2-2--3-3-----

chorus:

G|-------------------------------------
D|----------2-4-5-4--2-h-4-p-2---------
A|--------2---------------------5-4----
E|--3-2-0------------------------------

G|---------4----------
D|----5------5--------
A|--4---4-------------
E|-------------3-2----

E|--------------------------------------------
B|---------------2-h-3-p-2--------------------
G|-----------2-4------------2-h-4-----2-------
D|-----2-4-5------------------------5---4-----
A|---2----------------------------------------
E|-0------------------------------------------

rhythm in the last bar of the previus line:

D|---5-5--7-7-----
A|---5-5--7-7-----
E|---3-3--5-5-----

last time:

E|--------------------------------------------
B|---------------2-h-3-p-2--------------------
G|-----------2-4------------2-h-4-------------
D|-----2-4-5------------------------2-h-4-----
A|---2----------------------------------------
E|-0------------------------------------------

solo riff:

D|----4------2-----------------------
A|---------5---5----4---3--2---------
E|--2---2---------2---2-------5--2---

repeat, then:

D|---------------------
A|--4-2-4--4-2---------
E|--2-0-2--2-0--/-5----

variation in last chorus:

G|-2----4----5----7-8-7----
D|---3----5----6-----------
A|-------------------------
E|-------------------------

rhtyhm during above line:

D|-3--5--6---8-8-8---
A|-3--5--6---8-8-8---
E|-1--3--4---6-6-6---

outro:

G|---------0---4-0---------
D|-------2---2-----2-------
A|-0-2-3-------------3-----
E|-------------------------

G|-----0---4-0-------------
D|---2---2-----2-----------
A|-2-------------2---------
E|-------------------------

G|-----0---3-0-------------
D|---0---0-----0-----------
A|-1-------------1---------
E|-------------------------

G|-----0---4-0-------------
D|---2---2-----2-----------
A|-0-------------0---------
E|-------------------------

G|------5-7-8---7-8-5-(gtr. 2|-----
D|---------------------------------
A|------3-5-6---5-6-3-(gtr. 1|-----
E|---4-----------------------------		   
AcordesyTabs.com © 2008 Acordes y Tablaturas para guitarra. Tabs and Chords for guitar. Aviso Legal - Contacto
El uso de este sitio está sujeto a la aceptación de los términos y condiciones (25 usuarios online)