tablaturas, partituras y acordes para guitarra
Busca por banda/artista:
 
y/o título de la canción:
A B C D E F G H I J K L M N O P Q R S T U V W X Y Z 0 1 2 3 4 5 6 7 8 9 / Top 100 tabs
Categorías
Usuarios
usuario:
Darse de alta
password:
Artistas más visitados
Publicidad
TOP acordes y tablaturas de Sum 41


Estás en: Inicio > Letra S > Acordes y tablaturas de Sum 41 > How you remind me
How you remind me
de Sum 41
Puntúa este acorde/tab:      
(0.3/5)
Reportar este acorde/tab
  Añadir a tus favoritos
  Imprimir
Played live on MTV New Year´s Eve 2002. 
 
 
 
VERSE - 2X 
                     
e|--------------------------------------------------------------------------| 
B|--------------------------------------------------------------------------| 
G|--6-6-6-6-6-6-6-6---------------------4-4-4-4-4-4-4-4---------------------| 
D|--6-6-6-6-6-6-6-6---4-4-4-4-4-4-4-4---4-4-4-4-4-4-4-4---4-4-4-4--6-6-6-6--| 
A|--4-4-4-4-4-4-4-4---4-4-4-4-4-4-4-4---2-2-2-2-2-2-2-2---4-4-4-4--6-6-6-6--| 
E|--------------------2-2-2-2-2-2-2-2---------------------2-2-2-2--4-4-4-4--| 
    |____________________________________________________________________| 
			       palm - muted 
 
 
POST-VERSE - 2X 
 
e|------------------------------------------------------------------------------------------| 
B|------------------------------------------------------------------------------------------| 
G|--6-6--6--6-6-6--6--6-------------------------4-4--4--4-4-4--4--4-------------------------| 
D|--6-6--6--6-6-6--6--6---4-4--4--4-4-4--4--4---4-4--4--4-4-4--4--4---4-4--4--4--6-6--6--6--| 
A|--4-4--4--4-4-4--4--4---4-4--4--4-4-4--4--4---2-2--2--2-2-2--2--2---4-4--4--4--6-6--6--6--| 
E|------------------------2-2--2--2-2-2--2--2-------------------------2-2--2--2--4-4--4--4--| 
P.M |__|   |_____|    |______|    |____|   |_______|    |____|    |______|    |_____|   |_| 
 
   (....This is how.......... you remind me..............of what........... i really am....) 
 
 
PRE-Chorus - 2X 
 
e|--------------------------------------------------------------------------| 
B|--------------------------------------------------------------------------| 
G|--6-6-6-6-6-6-6-6---------------------4-4-4-4-4-4-4-4---------------------| 
D|--6-6-6-6-6-6-6-6---4-4-4-4-4-4-4-4---4-4-4-4-4-4-4-4---4-4-4-4--6-6-6-6--| 
A|--4-4-4-4-4-4-4-4---4-4-4-4-4-4-4-4---2-2-2-2-2-2-2-2---4-4-4-4--6-6-6-6--| 
E|--------------------2-2-2-2-2-2-2-2---------------------2-2-2-2--4-4-4-4--| 
   (It´s not like you....) 
   (I was waiting on a...) 
 
 
Chorus 
 
e|--------------------------------------------------------------------------| 
B|--------------------------------------------------------------------------| 
G|--6-x-6-x-6-x-6-x---------------------4-4-4-4-4-4-4-4---------------------| 
D|--6-x-6-x-6-x-6-x---4-x-4-x-4-x-4-x---4-4-4-4-4-4-4-4---4-4-4-4--6-6-6-6--| 
A|--4-x-4-x-4-x-4-x---4-x-4-x-4-x-4-x---2-2-2-2-2-2-2-2---4-4-4-4--6-6-6-6--| 
E|--------------------2-x-2-x-2-x-2-x---------------------2-2-2-2--4-4-4-4--| 
 
 
e|--------------------------------------------------------------------------| 
B|--------------------------------------------------------------------------| 
G|--6-6-6-6-6-6-6-6---------------------4-4-4-4-4-4-4-4---------------------| 
D|--6-6-6-6-6-6-6-6---4-4-4-4-4-4-4-4---4-4-4-4-4-4-4-4---4-4-4-4--6-6-6-6--| 
A|--4-4-4-4-4-4-4-4---4-4-4-4-4-4-4-4---2-2-2-2-2-2-2-2---4-4-4-4--6-6-6-6--| 
E|--------------------2-2-2-2-2-2-2-2---------------------2-2-2-2--4-4-4-4--| 
 
 
e|--------------------------------------------------------------------------| 
B|--------------------------------------------------------------------------| 
G|--6-6-6-6-6-6-6-6---------------------4-4-4-4-4-4-4-4---------------------| 
D|--6-6-6-6-6-6-6-6---4-4-4-4-4-4-4-4---4-4-4-4-4-4-4-4---4-4--4--6-6--6----| 
A|--4-4-4-4-4-4-4-4---4-4-4-4-4-4-4-4---2-2-2-2-2-2-2-2---4-4--4--6-6--6----| 
E|--------------------2-2-2-2-2-2-2-2---------------------2-2--2--4-4--4----| 
P.M.							 |___|   |___| 
 
 
VERSE 2 - 1X 
 
guitar 1 
 
e|----------------------------------------------| 
B|----------------------------------------------| 
G|--6:---8-4:---(b9)8-4-6:---8-4:---4-x-x--6-x-x--| 
D|--x----x-x----x-x-x-x----x-x----x-x-x--x-x-x--| 
A|--4:---6-2:---7-6-2-4:---6-2:---2-x-x--4-x-x--| 
E|----------------------------------------------| 
 
 
guitar 2 (you can play the chords in brackets for powering the song) 
 
e|----------------------------------------------------| 
B|----------------------------------------------------| 
G|--(6:---8-4:---(b9)8-4-6:---8-4:)---------------------| 
D|--(x----x-x----x-x-x-x----x-x-)---4-4--4---6-6--6---| 
A|--(4:---6-2:---7-6-2-4:---6-2:)---4-4--4---6-6--6---| 
E|----------------------------------2-2--2---4-4--4---| 
P.M.				   |___|    |___| 
 
 
POST-VERSE - 2X 
 
e|------------------------------------------------------------------------------------------| 
B|------------------------------------------------------------------------------------------| 
G|--6-6--6--6-6-6--6--6-------------------------4-4--4--4-4-4--4--4-------------------------| 
D|--6-6--6--6-6-6--6--6---4-4--4--4-4-4--4--4---4-4--4--4-4-4--4--4---4-4--4--4--6-6--6--6--| 
A|--4-4--4--4-4-4--4--4---4-4--4--4-4-4--4--4---2-2--2--2-2-2--2--2---4-4--4--4--6-6--6--6--| 
E|------------------------2-2--2--2-2-2--2--2-------------------------2-2--2--2--4-4--4--4--| 
P.M |__|   |_____|    |______|    |____|   |_______|    |____|    |______|    |_____|   |_| 
 
   (....This is how.......... you remind me..............of what........... i really am....) 
 
 
 
PRE-Chorus - 2X 
 
e|--------------------------------------------------------------------------| 
B|--------------------------------------------------------------------------| 
G|--6-6-6-6-6-6-6-6---------------------4-4-4-4-4-4-4-4---------------------| 
D|--6-6-6-6-6-6-6-6---4-4-4-4-4-4-4-4---4-4-4-4-4-4-4-4---4-4-4-4--6-6-6-6--| 
A|--4-4-4-4-4-4-4-4---4-4-4-4-4-4-4-4---2-2-2-2-2-2-2-2---4-4-4-4--6-6-6-6--| 
E|--------------------2-2-2-2-2-2-2-2---------------------2-2-2-2--4-4-4-4--| 
   (It´s not like you....) 
   (I was waiting on a...) 
 
 
Chorus 
 
e|--------------------------------------------------------------------------| 
B|--------------------------------------------------------------------------| 
G|--6-x-6-x-6-x-6-x---------------------4-4-4-4-4-4-4-4---------------------| 
D|--6-x-6-x-6-x-6-x---4-x-4-x-4-x-4-x---4-4-4-4-4-4-4-4---4-4-4-4--6-6-6-6--| 
A|--4-x-4-x-4-x-4-x---4-x-4-x-4-x-4-x---2-2-2-2-2-2-2-2---4-4-4-4--6-6-6-6--| 
E|--------------------2-x-2-x-2-x-2-x---------------------2-2-2-2--4-4-4-4--| 
 
 
e|--------------------------------------------------------------------------| 
B|--------------------------------------------------------------------------| 
G|--6-6-6-6-6-6-6-6---------------------4-4-4-4-4-4-4-4---------------------| 
D|--6-6-6-6-6-6-6-6---4-4-4-4-4-4-4-4---4-4-4-4-4-4-4-4---4-4-4-4--6-6-6-6--| 
A|--4-4-4-4-4-4-4-4---4-4-4-4-4-4-4-4---2-2-2-2-2-2-2-2---4-4-4-4--6-6-6-6--| 
E|--------------------2-2-2-2-2-2-2-2---------------------2-2-2-2--4-4-4-4--| 
 
 
e|--------------------------------------------------------------------------| 
B|--------------------------------------------------------------------------| 
G|--6-6-6-6-6-6-6-6---------------------4-4-4-4-4-4-4-4---------------------| 
D|--6-6-6-6-6-6-6-6---4-4-4-4-4-4-4-4---4-4-4-4-4-4-4-4---4-4--4--6-6--6----| 
A|--4-4-4-4-4-4-4-4---4-4-4-4-4-4-4-4---2-2-2-2-2-2-2-2---4-4--4--6-6--6----| 
E|--------------------2-2-2-2-2-2-2-2---------------------2-2--2--4-4--4----| 
P.M.							 |___|   |___| 
 
 
BRIDGE - 2X 
 
e|-------------------------------------------------------------------------| 
B|-------------------------------------------------------------------------| 
G|--6-6-6-6-6-6-6-6---------------------4-4-4-4-4-4-4-4--------------------| 
D|--6-6-6-6-6-6-6-6---4-4-4-4-4-4-4-4---4-4-4-4-4-4-4-4---4-4-4-4-4-4-4-4--| 
A|--4-4-4-4-4-4-4-4---4-4-4-4-4-4-4-4---2-2-2-2-2-2-2-2---4-4-4-4-4-4-4-4--| 
E|--------------------2-2-2-2-2-2-2-2---------------------2-2-2-2-2-2-2-2--| 
    |____________________________________________________________________| 
				palm - muted 
 
 
BRIDGE (second part) 
 
guitar 1 - 2X 
 
e|--------------------------------------------------------------------------| 
B|--------------------------------------------------------------------------| 
G|--6-6-6-6-6-6-6-6---------------------4-4-4-4-4-4-4-4---------------------| 
D|--6-6-6-6-6-6-6-6---4-4-4-4-4-4-4-4---4-4-4-4-4-4-4-4---4-4-4-4--6-6-6-6--| 
A|--4-4-4-4-4-4-4-4---4-4-4-4-4-4-4-4---2-2-2-2-2-2-2-2---4-4-4-4--6-6-6-6--| 
E|--------------------2-2-2-2-2-2-2-2---------------------2-2-2-2--4-4-4-4--| 
    |____________________________________________________________________| 
			       palm - muted 
 
guitar 2  
 
e|--18~~--------------18~----18~-------------------------------| 
B|------18~~~~----------18~----18~-----------------------------| 
G|----------------------------------4-4-4-4--------------------| 
D|----------------------------------4-4-4-4--4-4-4-4--6-6-6-6--| 
A|----------------------------------2-2-2-2--4-4-4-4--6-6-6-6--| 
E|-------------------------------------------2-2-2-2--4-4-4-4--| 
  (This is how..............you remind me..................) 
 
 
PRE-Chorus  
 
e|--------------------------------------------------------------------------| 
B|--------------------------------------------------------------------------| 
G|--6-6-6-6-6-6-6-6---------------------4-4-4-4-4-4-4-4---------------------| 
D|--6-6-6-6-6-6-6-6---4-4-4-4-4-4-4-4---4-4-4-4-4-4-4-4---4-4-4-4--6-6-6-6--| 
A|--4-4-4-4-4-4-4-4---4-4-4-4-4-4-4-4---2-2-2-2-2-2-2-2---4-4-4-4--6-6-6-6--| 
E|--------------------2-2-2-2-2-2-2-2---------------------2-2-2-2--4-4-4-4--| 
   
 
					     (rest) 
e|--------------------------------------------------------------------------| 
B|--------------------------------------------------------------------------| 
G|--6-6-6-6-6-6-6-6---------------------4-x---------------------------------| 
D|--6-6-6-6-6-6-6-6---4-4-4-4-4-4-4-4---4-x---------------------------------| 
A|--4-4-4-4-4-4-4-4---4-4-4-4-4-4-4-4---2-x----------------------------| 
E|--------------------2-2-2-2-2-2-2-2----------------------------------| 
					     1  +  2  +  3  +  4 (pick scrape) 
 
 
Chorus 
 
e|--------------------------------------------------------------------------| 
B|--------------------------------------------------------------------------| 
G|--6-x-6-x-6-x-6-x---------------------4-4-4-4-4-4-4-4---------------------| 
D|--6-x-6-x-6-x-6-x---4-x-4-x-4-x-4-x---4-4-4-4-4-4-4-4---4-4-4-4--6-6-6-6--| 
A|--4-x-4-x-4-x-4-x---4-x-4-x-4-x-4-x---2-2-2-2-2-2-2-2---4-4-4-4--6-6-6-6--| 
E|--------------------2-x-2-x-2-x-2-x---------------------2-2-2-2--4-4-4-4--| 
 
 
e|--------------------------------------------------------------------------| 
B|--------------------------------------------------------------------------| 
G|--6-6-6-6-6-6-6-6---------------------4-4-4-4-4-4-4-4---------------------| 
D|--6-6-6-6-6-6-6-6---4-4-4-4-4-4-4-4---4-4-4-4-4-4-4-4---4-4-4-4--6-6-6-6--| 
A|--4-4-4-4-4-4-4-4---4-4-4-4-4-4-4-4---2-2-2-2-2-2-2-2---4-4-4-4--6-6-6-6--| 
E|--------------------2-2-2-2-2-2-2-2---------------------2-2-2-2--4-4-4-4--| 
 
 
e|--------------------------------------------------------------------------| 
B|--------------------------------------------------------------------------| 
G|--6-6-6-6-6-6-6-6---------------------4-4-4-4-4-4-4-4---------------------| 
D|--6-6-6-6-6-6-6-6---4-4-4-4-4-4-4-4---4-4-4-4-4-4-4-4---4-4--4--6-6--6----| 
A|--4-4-4-4-4-4-4-4---4-4-4-4-4-4-4-4---2-2-2-2-2-2-2-2---4-4--4--6-6--6----| 
E|--------------------2-2-2-2-2-2-2-2---------------------2-2--2--4-4--4----| 
P.M.							 |___|   |___| 
 
 
Chorus (final part) - 4X 
 
e|--------------------------------------------------------------------------| 
B|--------------------------------------------------------------------------| 
G|--6-6-6-6-6-6-6-6---------------------4-4-4-4-4-4-4-4---------------------| 
D|--6-6-6-6-6-6-6-6---4-4-4-4-4-4-4-4---4-4-4-4-4-4-4-4---4-4-4-4--6-6-6-6--| 
A|--4-4-4-4-4-4-4-4---4-4-4-4-4-4-4-4---2-2-2-2-2-2-2-2---4-4-4-4--6-6-6-6--| 
E|--------------------2-2-2-2-2-2-2-2---------------------2-2-2-2--4-4-4-4--| 
   (yeah...............yeah..............yeah...............yeah..........) 
 
 
end on 
 
e|--------------------| 
B|--------------------| 
G|--6-----------------| 
D|--6-----------------| 
A|--4-----------------| 
E|--------------------| 
   (yeeeaahhhhhhh....)		   
AcordesyTabs.com © 2008 Acordes y Tablaturas para guitarra. Tabs and Chords for guitar. Aviso Legal - Contacto
El uso de este sitio está sujeto a la aceptación de los términos y condiciones (38 usuarios online)