tablaturas, partituras y acordes para guitarra
Busca por banda/artista:
 
y/o título de la canción:
A B C D E F G H I J K L M N O P Q R S T U V W X Y Z 0 1 2 3 4 5 6 7 8 9 / Top 100 tabs
Categorías
Usuarios
usuario:
Darse de alta
password:
Artistas más visitados
Publicidad
TOP acordes y tablaturas de Megadeth


Estás en: Inicio > Letra M > Acordes y tablaturas de Megadeth > Poison was the cure
Poison was the cure
de Megadeth
Puntúa este acorde/tab:      
(0.3/5)
Reportar este acorde/tab
  Añadir a tus favoritos
  Imprimir
Standard Tuning

Intro
------------------------------------------
------------------------------------------
--2-------------------------------------2-
--2-------------------------------5-5---2-
--0-0-0-0-0-0-0-0-0-0-0-0-0-0-0-0-3-4-0-0-
------------------------------------------

Verse
------------------------------------------
------------------------------------------
--------------------------------7p5-5---4-
---7p5--5---5h7p5-5------7p5-5-----7-7p5--
-0-----0-6h7-----7-76p50----7-------------
------------------------------------------

Bridge
--------------------------------
--------------------------------
----------------2---------------
-3--4--5--6-5-4-2---------------
-3--4--5--6-5-4-0---------------
-1--2--3--4-3-2-----------------

--------------------------------
--------------------------------
--------------5-4---------------
-3--4--5--6-5-5-4---------------
-3--4--5--6-5-3-2---------------
-1--2--3--4-3-------------------

----------------------------------------------------------------------
----------------------------------------------------------------------
----------------------------------------------------------------------
-3--4--5--6-5-4-4--5--6--7--6-5-5--6--7--8--7--8--7-6-7--8--(b9)7--8--(b9)
-3--4--5--6-5-4-4--5--6--7--6-5-5--6--7--8--7--8--7-6-7--8--(b9)7--8--(b9)
-1--2--3--4-3-2-2--3--4--5--4-3-3--4--5--6--5--6--5-4-5--6--7-5--6--7-

Verse(last)
------------------------------------------------------
------------------------------------------------------
-12-------------1211-------------1110-------------10(b9)
-10-------------10-(b9)-------------(b9)8--------------87-
----000000000000-----000000000000-----000000000000----
------------------------------------------------------

-------------------------------------------------
-------------------------------------------------
-98-------------87-------------76-------------65-
-76-------------65-------------54-------------43-
----000000000000---000000000000---000000000000---
-------------------------------------------------

Outro
------------------------------------------------------------------
------------------------------------------------------------------
-2---------------5---------------7---------------10-------(b9)------
-2---------------5---------------7---------------10-------(b9)------
-0-000000000000003-000000000000005-00000000000000-8-0000007-000000
------------------------------------------------------------------		   
AcordesyTabs.com © 2008 Acordes y Tablaturas para guitarra. Tabs and Chords for guitar. Aviso Legal - Contacto
El uso de este sitio está sujeto a la aceptación de los términos y condiciones (19 usuarios online)