tablaturas, partituras y acordes para guitarra
Busca por banda/artista:
 
y/o título de la canción:
A B C D E F G H I J K L M N O P Q R S T U V W X Y Z 0 1 2 3 4 5 6 7 8 9 / Top 100 tabs
Categorías
Usuarios
usuario:
Darse de alta
password:
Artistas más visitados
Publicidad
TOP acordes y tablaturas de Megadeth


Paranoid
de Megadeth
Puntúa este acorde/tab:      
(0.4/5)
Reportar este acorde/tab
  Añadir a tus favoritos
  Imprimir
Standard Tuning

Intro
--------------------------------------------------------
--------------------------------------------------------
-(b9)-(b9)-(b9)-------7h(b9)----7h(b9)-(b9)-(b9)-(b9)------7h(b9)----7----
-(b9)-(b9)-(b9)---7h(b9)----7h(b9)-----(b9)-(b9)-(b9)--7h(b9)----7h(b9)--(b9)-
-7--7--7---------------------7--7--7--------------------
--------------------------------------------------------

Verse

-----------------------------------------------------------
-------------------------------------------------------8h(b9)
-------------------------------------------------7---------
-(b9)------------------------------7---------------5-7-(b9)----
-7-7-7-7-7-7-7-7-7-7-7-7-7-7-7-7-5-5-5-5-5-5-5-5---5-7-----
-----------------------------------------------------------

Interlude

-------------------------------------------------------------
-------------------------------------------------------------
-(b9)-----------5------7---------------------------------------
-(b9)-----------5------7---------------------------------------
-7------------3------5-------7-7-7-7-7-7-7-7-7-7-7-7-7-7-7-7-
-------------------------------------------------------------

Chorus

--------------------------------------------------
--------------------------------------------------
-(b9)-----------7-----------(b9)----------7-----------
-(b9)-----------7-----------(b9)----------7-----------
-7------------5-----------7-----------5-----------
--------------------------------------------------		   
AcordesyTabs.com © 2008 Acordes y Tablaturas para guitarra. Tabs and Chords for guitar. Aviso Legal - Contacto
El uso de este sitio está sujeto a la aceptación de los términos y condiciones (28 usuarios online)