tablaturas, partituras y acordes para guitarra
Busca por banda/artista:
 
y/o título de la canción:
A B C D E F G H I J K L M N O P Q R S T U V W X Y Z 0 1 2 3 4 5 6 7 8 9 / Top 100 tabs
Categorías
Usuarios
usuario:
Darse de alta
password:
Artistas más visitados
Publicidad
TOP acordes y tablaturas de Megadeth


Liar
de Megadeth
Puntúa este acorde/tab:      
(0.3/5)
Reportar este acorde/tab
  Añadir a tus favoritos
  Imprimir
Standard Tuning

This is the intro.  strike open A string at random.  I've included the
open A a few times here, but listening to the recording should help you 
get it.

G|------------------------------------------------------
D|--5-h-7-------8-p-7------5-h-7---8----10-(b9)8--8-7-6---
A|----------0--------------0---0--------0--0------------
E|------------------------------------------------------

   play three times, then:

G|---------------------------------------------
D|--5-h-7-----7--8-p-7--7--7-----5----8---7----
A|------------0------------0----------8---7----
E|---------------------------------------------

   play twice, then the 2nd guitar enters:

G|-----------------------------------------------------
D|--5-h-7---10--(b9)-8---8--7--6----8--5---8-7-5---7-----
A|--0--------------------------------------------7-----
E|-----------------------------------------------------

G|-------------------------------------------------
D|--5-h-7---10--(b9)-8---8--7--6----8--5---8---7-----
A|--0----------------------------------------0-----
E|-------------------------------------------------

G|----------------------------------------------------
D|--5-h-7---10--(b9)-8---8--7--6----8--5---8-7-5---7----
A|--0--------------------------------------------7----
E|----------------------------------------------------

G|---------------------------------
D|--5-h-7---10--(b9)-8---8--7--6-----
A|--0------------------------------
E|---------------------------------

G|-----------------------
D|---8--8--8--8--8-----
A|---8--8--8--8--8-----
E|---6--6--6--6--6-----

    repeat.  the 2nd time, finish with:

G|---------------------------------
D|---(b9)-8--7--6--5--4--3--3--3-----
A|---7--6--5--4--3--2--1--1--1-----
E|---------------------------------

    verse:

G|------------------------------------------------
D|---------------------------5--4--3--------------
A|--5--/--7------------------3--2--1-----5--5-----
E|--3--/--5--5-5-5-5-5-------------------3--3-----

G|-----------------------------------------
D|---------------------------5--4--3-------
A|--5--/--7------------------3--2--1-------
E|--3--/--5--5-5-5-5-5---------------------

      then, at the end of the verse:

G|---------------------------------
D|---(b9)-8--7--6--5--4--3--3--3-----
A|---7--6--5--4--3--2--1--1--1-----
E|---------------------------------

G|-----------------------------------------------------
D|--5-h-7---10--(b9)-8---8--7--6----8--5---8-7-5---7-----
A|--0--------------------------------------------7-----
E|-----------------------------------------------------

G|-------------------------------------------------
D|--5-h-7---10--(b9)-8---8--7--6----8--5---8---7-----
A|--0----------------------------------------0-----
E|-------------------------------------------------

G|------------------------------------------------------
D|--5-h-7---10--(b9)-8---8--7--6----8--5---8-7-5----7-----
A|--0---------------------------------------------7-----
E|------------------------------------------------------

G|---------------------------------
D|--5-h-7---10--(b9)-8---8--7--6-----
A|--0------------------------------
E|---------------------------------

G|---------------------
D|---8--8--8--8--8-----
A|---8--8--8--8--8-----
E|---6--6--6--6--6-----

    then repeat the verse rhythm.  This is the part where Dave starts singing
"Make up your stories...":

D|--------------------------------------------------
A|--5--/--7-----------------------------------------
E|--3--/--5--5-5-5-5-5--------6---3---6-5-3---5-----

D|----------------------------------------------------
A|--5--/--7-------------------5---------5---4-(5|-----
E|--3--/--5--5-5-5-5-5--------6-----------------------

    "You're a liar, liar, liar!...":

D|----------------------------------------------------------------
A|--5--/--7--------------4--/--5--------------3--/--4-------------
E|--3--/--5--5-5-5-5-----2--/--3--3-3-3-3-----1--/--2--2-2--------

G|---------------------------------------------------------
D|--3--/--4-----------------------------------(b9)-8--7------
A|--1--/--2------------5--------3---2---------7--6--5------
E|--------------0--0---3--0--0--1---0---0------------------

   that rhythm is also played during Dave's fast bashing lyrics.  I've
already tabbed the rhythms after that, so all that's left is the ending:

G|--------------------------
D|---3--4--5--6--7--8--(b9)---
A|---1--2--3--4--5--6--7----
E|--------------------------

D|--------------------------------------
A|----x-x-x-x----7----5----(b9)---5-----
E|----x-x-x-x----5----3----7----3-----		   
AcordesyTabs.com © 2008 Acordes y Tablaturas para guitarra. Tabs and Chords for guitar. Aviso Legal - Contacto
El uso de este sitio está sujeto a la aceptación de los términos y condiciones (19 usuarios online)