tablaturas, partituras y acordes para guitarra
Busca por banda/artista:
 
y/o título de la canción:
A B C D E F G H I J K L M N O P Q R S T U V W X Y Z 0 1 2 3 4 5 6 7 8 9 / Top 100 tabs
Categorías
Usuarios
usuario:
Darse de alta
password:
Artistas más visitados
Publicidad
TOP acordes y tablaturas de Megadeth


Estás en: Inicio > Letra M > Acordes y tablaturas de Megadeth > Last rites-loved to deth
Last rites-loved to deth
de Megadeth
Puntúa este acorde/tab:      
(0.1/5)
Reportar este acorde/tab
  Añadir a tus favoritos
  Imprimir
Explanations:  p - pull off
               h - hammer on
               b - bend
               / - slide up
               r - Freak string
               . - Palm mute
              tr - Trill

    Intro Scale
    -----------

e|-||----------------------------------------------------||
B|-||----------------------------------------------------||
G|-||--7-6-7-6-7-6-7-6-5-6-5-6-5-6-----------------------||
D|-||------------------------------7p6p5-----------------||
A|-||------------------------------------7p6p5-------5~--||
E|-||------------------------------------------7p6p5-----||  

_Veras_1_and_Ref_1_
 -----------------

    Riff A
    ------

Guitar 1                   Repeat 4x   Play this every 4th
e|-||---------------------------------   ---------------||
B|-||---------------------------------   ---------------||
G|-||.--------------------------------.  ----5----------||
D|-||.-7p6p5-7p6p5-7--8p7p5-8p7p5-8---.  -8-----8p7p6p5-||
A|-||---------------------------------   ---------------||
E|-||---------------------------------   ---------------||  Play 6x

Guitar 2 ( play only this in teh begining of song )
A|-||-7-8----7---7-8----7--||
E|-||-5-6----5---5-6----5--|| 4x

    Riff B (Vears)
    -------------

e|-||---------------------------------------||
B|-||---------------------------------------||
G|-||---------------------------------------||
D|-||--------8------------8------------8----||
A|-||-8-7-7--6-7---8-7-7--6-7---8-7-7--6-7--||
E|-||-6-5-5----5---6-5-5----5---6-5-5----5--||  Play 2x
         .            .            .

    Riff C 
    ------

e|-||---------------------------------------||
B|-||---------------------------------------||
G|-||---------------------------------------||
D|-||---------------------------------------||
A|-||-4---------------2-4-----5-4-----------||
E|-||-2-2-2-2-2-2-2-2-0-2-0-0-3-2-----------||  Play 2x
       . . . . . . .     . .

Riff B
Riff C
Riff A

_Veras_2_and_Ref_2_
 -----------------

Riff A
Riff B
Riff C

    Riff D
    ------

e|-||----------------------------------||
B|-||----------------------------------||
G|-||----------------------------------||
D|-||----------------------------------||
A-||-(b9)-8--7--6--5-4--7--6--5--4--3-2-||
e|-||-7--6--5--4--3-2--5--4--3--2--1-0-||  

Riff A
Riff D
Riff A

Solo Part
---------

Riff B
Riff B
Riff C
Riff B
Riff C
Riff D

Riff B
Riff A

Break Part
----------

    "Ha ha ha ha.."
A-||-7-7-7-7-7-7--6-||
e|-||-5-5-5-5-5-5--8-|| Play 4x

_Veras_3_and_Ref_3_
 -----------------

e|-||-----------------------------||
B|-||-----------------------------||
G|-||-----------------------------||
D|-||-----------8-----------------||
A|-||-8-7-------6-7-------4tr5--7-||
E|-||-6-5-5-5-5---5-5-5-5-------5-|| Play 4x
         . . . . . . . .

e|-||------------------------------||
B|-||------------------------------||
G|-||-------------------------6-7--||
D|-||-------------------------4-5--||
A|-||-7-8-7--5-7-8--7-8-4tr5-------||
E|-||-5-6-5--3-5-6--5-6------------|| Play 4x

D|-||------------------||
A-||-7-8-7-4tr5--7-8--||
E|-||-5-6-5-------5-6--|| Play 2x

And Last.....

    "I love to death.......Ouhhhhhh"
A|-||--7---------8----7/-------------||
E|-||--5---------6----5/-------------||		   
AcordesyTabs.com © 2008 Acordes y Tablaturas para guitarra. Tabs and Chords for guitar. Aviso Legal - Contacto
El uso de este sitio está sujeto a la aceptación de los términos y condiciones (14 usuarios online)