tablaturas, partituras y acordes para guitarra
Busca por banda/artista:
 
y/o título de la canción:
A B C D E F G H I J K L M N O P Q R S T U V W X Y Z 0 1 2 3 4 5 6 7 8 9 / Top 100 tabs
Categorías
Usuarios
usuario:
Darse de alta
password:
Artistas más visitados
Publicidad
TOP acordes y tablaturas de Megadeth


Estás en: Inicio > Letra M > Acordes y tablaturas de Megadeth > I thought i knew it all
I thought i knew it all
de Megadeth
Puntúa este acorde/tab:      
(0.3/5)
Reportar este acorde/tab
  Añadir a tus favoritos
  Imprimir
Eb Tuning

Intro
-------------------
-------------------
-------------------
-4--------3--------
-4--------3--------
-2--------1--------

Verse
--------------------------------------------------
--------------------------------------------------
--------------------------------------------------
--------------------------------------------------
-------4/5-------7----3--------7/8--------7----5--
-0--0--2/3-0--0--5----1--0--0--5/6--0--0--5----3--

Pre-Chorus
-------------------------------------------------------------
-------------------------------------------------------------
---2p0---2p0---2p0---2h3p2p0-----2p0---2p0---2p0---2h3p2p0---
-0-----0-----0-----0-----------------------------------------
-------------------------------1-----1-----1-----1-----------
-------------------------------------------------------------

-------------------------------------------------------------
-------------------------------------------------------------
---2p0---2p0---2p0---2h3p2p0-----2p0---2p0---2p0---2h3p2p0---
-------------------------------------------------------------
------------------------------0------0-----0-----0-----------
-3-----3-----3-----3-----------------------------------------

-------------------------------------------------------------
-------------------------------------------------------------
---2p0---2p0---2p0---2h3p2p0-----2p0---2p0---2p0---2h3p2p0---
-0-----0-----0-----0-----------------------------------------
-------------------------------1-----1-----1-----1-----------
-------------------------------------------------------------

-------------------------------------------------------------
-------------------------------------------------------------
---2p0---2p0---2p0---2h3p2p0-----2p0---2p0---0---2p0--2p0--0-
-------------------------------------------------------------
-2-----2-----2-----2-----------3-----3-----3---4----4-----4--
-------------------------------------------------------------

Chorus
--------------------------------------------------
--------------------------------------------------
---------5-------2-------7------------------------
-2-------5-------2-------7---(b9)-------------------
-2-------3-------0-------5---6--------------------
-0------------------------------------------------

with
-12p10-12-----------------------------------------
-------------12p10-12-----------------------------
-------------------------12p11-12-----------------
--------------------------------------------------
--------------------------------------------------
--------------------------------------------------

-5p3-5-----------------------------------------
-------------5p3-5-----------------------------
-------------------------5p4-5-----------------
-----------------------------------------------
-----------------------------------------------
-----------------------------------------------

Solo: Friedman (tabbed by David Corrales)

Eb |---------------------------------|--------------------------------------------------------|
Bb |---------------------------------|--------------------------------------------------------|
Gb |-17b(19)~-17-16-15----15/17------|----------12----------------(b9)--------------------------|
Db |-------------------18-------17~-|-12-13-14----14-12-14~-(b9)12---12-12~----------12~-------|
Ab |---------------------------------|-------------------------------------12-13-14-----14-13-|
Eb |---------------------------------|--------------------------------------------------------|

 |---------------------------------------|-------------------------------------|
 |---------------------------------------|-15------------15--------------------|
 |---------------------------------------|-14b(16)-14p12----12-----------------|
 |---------------------------------------|---------------------14p12-12-12/14~-|
 |-12-13p12-13p12-10/12-10/12-7-7~-|-------------------------------------|
 |---------------------------------------|-------------------------------------|

 |----------------------------------------------------------------------------------12-------|
 |----------12----------------------12---------------------12-15-----------12-12-15----15-12-|
 |-12h14h15----15-14-12----12h14h15----15-14-12----12h14h15-------15-14-15-------------------|
 |----------------------14---------------------14--------------------------------------------|
 |-------------------------------------------------------------------------------------------|
 |-------------------------------------------------------------------------------------------|

 |-15b(17)-15p12-------------------------------|
 |---------------15-12----12-15p12----12-15p12-|
 |---------------------14----------14----------|
 |---------------------------------------------|
 |---------------------------------------------|
 |---------------------------------------------|

 |-15b17~-------12-15-15b(19)~-(19)b15-15~-13h15p13-12~-10h12p10-9~-12-10~------------------|
 |--------12-15------------------------------------------------------------10-10h11~--------|
 |------------------------------------------------------------------------------------------|
 |------------------------------------------------------------------------------------------|
 |------------------------------------------------------------------------------------------|
 |------------------------------------------------------------------------------------------|

 |---------------------------|--------------------------------------------------------------|
 |-11-11h12~-13------14------|--------------------------------------------------------------|
 |--------------12~----14~-|--------------------------------------------------------------|
 |---------------------------|--------------------------------------------------------------|
 |---------------------------|--------------------------------------------------------------|
 |---------------------------|--------------------------------------------------------------|		   
AcordesyTabs.com © 2008 Acordes y Tablaturas para guitarra. Tabs and Chords for guitar. Aviso Legal - Contacto
El uso de este sitio está sujeto a la aceptación de los términos y condiciones (27 usuarios online)