tablaturas, partituras y acordes para guitarra
Busca por banda/artista:
 
y/o título de la canción:
A B C D E F G H I J K L M N O P Q R S T U V W X Y Z 0 1 2 3 4 5 6 7 8 9 / Top 100 tabs
Categorías
Usuarios
usuario:
Darse de alta
password:
Artistas más visitados
Publicidad
TOP acordes y tablaturas de Megadeth


Estás en: Inicio > Letra M > Acordes y tablaturas de Megadeth > Coming home
Coming home
de Megadeth
Puntúa este acorde/tab:      
(0.6/5)
Reportar este acorde/tab
  Añadir a tus favoritos
  Imprimir
E|--------7-------7-------7-------7-------7-------7-------7-------7---
B|--8-8-8---8-8-8---7-8-8---7-8-8-----8-8-----8-8---7-8-8---7-8-8-----
G|----------------------------------(b9)------(b9)------------------------
D|--------------------------------------------------------------------
A|--------------------------------------------------------------------
E|--------------------------------------------------------------------

E|--------7-------7-------7-------7-------7-------7-------7-------7---
B|--8-8-8---8-8-8---7-8-8---7-8-8-----8-8-----8-8-----8-8-----8-8-----
G|----------------------------------(b9)------(b9)------8-------8---------
D|--------------------------------------------------------------------
A|--------------------------------------------------------------------
E|--------------------------------------------------------------------

E|---------7---------------7----------
B|----8-10---10-8-----8-10---10-8-----
G|--8-------------8-8-------------8---
D|------------------------------------
A|------------------------------------
E|------------------------------------

E|--------3---------2---------1---------0-----
B|----------0---------0---------0---------0---
G|------2---------2---------2---------2-------
D|----2---------2---------2---------2---------
A|--0---------0---------0---------0-----------
E|--------------------------------------------		   
AcordesyTabs.com © 2008 Acordes y Tablaturas para guitarra. Tabs and Chords for guitar. Aviso Legal - Contacto
El uso de este sitio está sujeto a la aceptación de los términos y condiciones (33 usuarios online)