tablaturas, partituras y acordes para guitarra
Busca por banda/artista:
 
y/o título de la canción:
A B C D E F G H I J K L M N O P Q R S T U V W X Y Z 0 1 2 3 4 5 6 7 8 9 / Top 100 tabs
Categorías
Usuarios
usuario:
Darse de alta
password:
Artistas más visitados
Publicidad
TOP acordes y tablaturas de Megadeth


Bad omen
de Megadeth
Puntúa este acorde/tab:      
(0.1/5)
Reportar este acorde/tab
  Añadir a tus favoritos
  Imprimir
Standard Tuning
Notes: I Think Solos 2 & 3 Are Done By Dave, But I'm Not Sure

intro:

E|-------------------------
B|-------8-----------7-----
G|-----(b9)--(b9)------(b9)------
D|---(b9)------(b9)--8---------   repeat
A|-7-----------7-----------
E|-------------------------

E|-------------------------------------
B|-------8-----------7-----------------
G|-----(b9)--(b9)------(b9)--(b9)---------(b9)---  x 4
D|---(b9)------(b9)--8-------8---8---------
A|-7-----------7-----------7---7-------
E|-------------------------------------

distorcido:
E|---------------------------------------------------
B|-----------15-14-13--------------------------------
G|--(b9)-------14-13-12---(b9)---------------------------
D|--(b9)--8----12-11-10---(b9)---------------------------
A|--7---8---------------7----------------------------
E|--0---6---------------0--0-0-6-7-6-7-6-7-6-3-5-3---
repete...

Guitar Solo 1: 
|----------------------------------------h-h--p-p-p-h-h-----h--h--p--p--p--|
|-------------------------------------h-7-8-10-(b9)8-7-(b9)10-11-12-13-12-11-10|
|-------------------------h--(b9)-p--p-8-(b9)----------------------------------|
|----h--h--(b9)-p--p-h--h--(b9)10-12-10-(b9)-------------------------------------|
|---(b9)10-15-12-10-(b9)10-12--------------------------------------------------|
|--------------------------------------------------------------------------|

|--------------h--p--p--p--------------------------------------------------|
|---p--p--h--10-12-11-10-(b9)p-p-p------------------------------------------9|
|-12-11-10-12-------------(b9)8-7-6-p-p-p------------------------------7(b9)--|
|--------------------------------(b9)8-7-6-p---------------------7--(b9)-------|
|---------------------------------------7-6-5~~~~-------7--10--------------|
|--------------------------------------------------------------------------|

                                                     /+1 Vib. Bar
|-----12/16----16b+1------15b+1------12-----------12------------12---------|
|-12------------------------------------15b+1-----------------------14b+1--|
|--------------------------------------------------------------------------|
|--------------------------------------------------------------------------|
|--------------------------------------------------------------------------|
|--------------------------------------------------------------------------|

|------------------------------------------|------------------------------|
|------------------------------------------|------------------------------|
|--(b9)--------------------------------------|--8-----------10--------------|
|--(b9)--------------------------------------|--8-----------10--------------|
|--7---------------------------------------|--6-----------10--------------|
|------------------------------------------|------------------------------|
|                                                                         |
|-------p---------p--p------h------p--------------------------------------|
|-15--13-12--p--15-13-12--13-15--13-12--p--12--p---10--p--p---------------|
|----------14-12----------------------14-12--14-12---12-10-(b9)-p--p--------|
|-----------------------------------------------------------12-10-(b9)-p--p-|
|------------------------------------------------------------------12-10-8|
|-------------------------------------------------------------------------|

then:
D|--(b9)--8----
A|--7---8----
E|--0---6----

Final da parte Lenta:

G|-----------12---(b9)----
D|--(b9)--8----12---(b9)----
A|--7---8----10---7-----
E|--0---6---------0-----

Rapido:

D|--------------------
A|--4-/-5----4-/-5----
E|--2-/-3----2-/-3----

G|----------------------------------------
D|--------------5-4-------------8-8-h-(b9)--
A|---------5---------7-5-4----------------
E|--7-5-7----x--------------7-------------

G|-----------------------------------------
D|--------------5-4------------------------
A|---------5---------7-5-4-------4---5-----
E|--7-5-7----x--------------7----2---3-----

verse:

D|-----------------------------5-4-------------
A|--4-------4-/-5--4--4--4----------7-5-4-----
E|--2--x-x--2-/-3--2--2--2--------------------


Antes 2nd verse:

D|---------------------------------------
A|--4----------------------------5--4----
E|--2--2-2-2-2-2-2-2-2-2-2-2-2---3--2----

then:

D|-----------------------------------
A|--2--------------------------------
E|--0--0-0-0-0-0-0-0-0-0-0-0-0-0-----

"bloody blasphemy"...

G|--(b9)------------------(b9)-----------
D|----8---------------8---8-----(b9)---
A|------7------7----7-------7---7----
E|--------6--6----6-------------0----

Guitar Solo 2:                                                                 
|--24b+3---24b+3---24b+3---24b+3---|24-22-21-22-21-1(b9)21-1(b9)17-1(b9)17-16|
|----------------------------------|-----------------------------------|
|----------------------------------|-----------------------------------|
|----------------------------------|-----------------------------------|
|----------------------------------|-----------------------------------|
|----------------------------------|-----------------------------------|

|17-16-14-16-14-12-14-12-10-12-10-9|10-(b9)---(b9)-------------------------|
|----------------------------------|-----12---12-10-12-10-(b9)10-(b9)------|
|----------------------------------|-----------------------------11-9-|
|----------------------------------|-----------------------------------|
|----------------------------------|-----------------------------------|
|----------------------------------|-----------------------------------|

faster:

D|------------------------------------------
A|------------------------------------------
E|---0-0-0-0-0-0-0-0-0-0-0-0-0-0-0---etc.---

D|--7----------7-------------
A|--5--(b9)-8----5--(b9)-8-------
E|-----7--6-------7--6-------

Guitar Solo 3:
|-----24b+3------24b+3------24b+3---24b+3---24b+3---24b+3---24b+3-d-3----|
|------------------------------------------------------------------------|
|------------------------------------------------------------------------|
|------------------------------------------------------------------------|
|------------------------------------------------------------------------|
|------------------------------------------------------------------------|

   p    p    p    p    p    p    p    p    p    p    p    p    p    p    p    p
|23-2024-2023-2024-2023-2024-2023-2024-2023-2024-2023-2024-2023-2024-2023-2024-20|
|--------------------------------------------------------------------------------|
|--------------------------------------------------------------------------------|
|--------------------------------------------------------------------------------|
|--------------------------------------------------------------------------------|
|--------------------------------------------------------------------------------|

   p    p    p    p    p    p    p    p    p    p    p    p    p    p    p    p
|22-1924-1922-1924-1921-1823-1820-1722-171(b9)1621-161(b9)1621-1618-1520-1518-1520-15|
|--------------------------------------------------------------------------------|
|--------------------------------------------------------------------------------|
|--------------------------------------------------------------------------------|
|--------------------------------------------------------------------------------|
|--------------------------------------------------------------------------------|

   p    p    p    p    p    p    p    p    p    p    p    p    p    p    p    p
|17-141(b9)1417-141(b9)1416-1318-1315-1217-1214-1116-1114-1116-1113-1015-1013-1015-10|
|--------------------------------------------------------------------------------|
|--------------------------------------------------------------------------------|
|--------------------------------------------------------------------------------|
|--------------------------------------------------------------------------------|
|--------------------------------------------------------------------------------|

   p    p    p    p    p    p    p    p   p    p   p    p   p    p   p    p
|12-(b9)14-(b9)12-(b9)14-(b9)11-8-13-8-10-7-12-7-(b9)6-11-6-(b9)6-11-6-8-5-10-5-8-5-10-5|
|---------------------------------------------------------------------------|
|---------------------------------------------------------------------------|
|---------------------------------------------------------------------------|
|---------------------------------------------------------------------------|
|---------------------------------------------------------------------------|

  p   p   p   p   p   p   p   p   p   p   p   p   p   p   p   p
|7-4-(b9)4-7-4-(b9)4-6-3-8-3-5-2-7-2-4-1-6-1-4-1-6-1-3-0-5-0-3-0-5-0|
|---------------------------------------------------------------|
|---------------------------------------------------------------|
|---------------------------------------------------------------|
|---------------------------------------------------------------|
|---------------------------------------------------------------|

|------------------------|---------------------------|--------------------|
|-------15--------15-----|--15----15----15----15-----|-12-----12-----12---|
|-----14b+2-----14b+2----|14b+2-14b+2-14b+2-14b+2----|-12-----12-----12---|
|------------------------|---------------------------|---14-----14-----14-|
|------------------------|---------------------------|--------------------|
|------------------------|---------------------------|--------------------|

|--------------12-14-12-|-15-14-12---------------15-|-15-14-12-------------|
|-----12-------12-14-12-|-15-14-12---------------15-|-15-14-12-------------|
|-----12----------------|-----------15-13--15-13----|------------15-12-15--|
|-------14--------------|-----------15-13--15-13----|------------15-12-15--|
|-----------------------|---------------------------|----------------------|
|-----------------------|---------------------------|----------------------|

|-----15---14---12-----------------|------------------------------|
|-----15---14---12-----------------|------------------------------|
|--------------------15-12---15-15-|--14---12b+1-----12-----------|
|--------------------15-12---15-15-|------------14--------14------|
|----------------------------------|---------------------------14-|
|----------------------------------|------------------------------|

"no one can save"...

D|------------7-p-5--------------------7-h-8-p-7-p-5--
A|-------------------7-p-5----------------------------
E|--0-0-0-0------------------0-0-0-0------------------

then:

D|--7----------7-----------
A|--5--(b9)-8----5--(b9)-8-----
E|-----7--6-------7--6-----

Final:

D|--7----------7---------------7----------7--------(b9)--
A|--5--(b9)-8----5--(b9)-8---7-----5--(b9)-8----5--(b9)-8--7---
E|-----7--6-------7--6---5--------7--6-------7--6--0---		   
AcordesyTabs.com © 2008 Acordes y Tablaturas para guitarra. Tabs and Chords for guitar. Aviso Legal - Contacto
El uso de este sitio está sujeto a la aceptación de los términos y condiciones (30 usuarios online)