tablaturas, partituras y acordes para guitarra
Busca por banda/artista:
 
y/o título de la canción:
A B C D E F G H I J K L M N O P Q R S T U V W X Y Z 0 1 2 3 4 5 6 7 8 9 / Top 100 tabs
Categorías
Usuarios
usuario:
Darse de alta
password:
Artistas más visitados
Publicidad
TOP acordes y tablaturas de Gin blossoms


Estás en: Inicio > Letra G > Acordes y tablaturas de Gin blossoms > As long as it matters
As long as it matters
de Gin blossoms
Puntúa este acorde/tab:      
(0.5/5)
Reportar este acorde/tab
  Añadir a tus favoritos
  Imprimir
Intro e Refrão
                                                       
G------------------------|--------------------------|
D------------------------|--------------------------|
A------------------------|--------------------------|
E------3--3-----0--3--3--|-----2--2-----0--2--2-----|
                                                                                                    
G---------------------------|--------------------------|
D---------2-----2--0-----0--|--------2-----2--0-----0--|
A---------------------2-----|--------------------2-----|
E---0--0-----0--------------|--0--0-----0--------------|

G---------------------------|--------------------------|
D---------0-----2--0--------|--------0-----2--0--------|
A---3--3-----3--------3--0--|--3--3-----3--------3--0--|
E---------------------------|--------------------------|
                                                                                
G---------------------2--4--7--|
D---0--0--2--0--4--2-----------|
A------------------------------|
E------------------------------|

                Outro Final do Refrão                                             
G------------------------------------------------------------------------------|
D---------------0--0--2--0--4--2--0-----0--0--2--0--4--2--0--------------------|
A------------------------------------2-----------------------2-----------------|
E------------------------------------------------------------------------------|

        Verso 1                                                                 
G---||--------------------|--------------------|--------------------|
D---||--------------------|--0--0--------0--0--|--2--2-----0--2--2--|
A---||--------------------|-----------2--------|--------------------|
E---||--3--3-----0--3--3--|--------------------|--------------------|
                                                                                                                                                   
G---------------------------|--------------------|--------------------|
D------0--0-----0-----------|--------------------|--------------------|
A------------2-----0--1--2--|--3--3-----0--3--3--|--------------------|
E---------------------------|--------------------|--3--3-----0--3--3--|
                                                                                

G---------------------|--------------------------|--------------------|
D---2--2-----0--2--2--|--0--0--------2--0--------|--------------------|
A---------------------|-----------2--------3--0--|--------------------|
E---------------------|--------------------------|--3--3-----0--3--3--|
                                                                                

G---------------------|--------------------|--------------------------|
D---0--0--------0--0--|--2--2-----0--2--2--|--0--0--------2--0--------|
A------------2--------|--------------------|-----------2--------0--2--|
E---------------------|--------------------|--------------------------|
                                                                                                                                                                
G---------------------|--------------------|--------------------------|
D---------------------|--------------------|--2--2--2--2--2--2--2--5--|
A---3--3-----0--3--3--|--------------------|--------------------------|
E---------------------|--3--3-----0--3--3--|--------------------------|
                                                                                

G---2--2--2--2--2--0--2--4--|
D---------------------------|
A---------------------------|
E---------------------------|
       Verso 2                                                                  
G---|--------------------|--------------------|--------------------|
D---|--------------------|--0--0--------0--0--|--2--2-----0--2--2--|
A---|--------------------|-----------2--------|--------------------|
E---|--3--3-----0--3--3--|--------------------|--------------------|
                                                                                
                                                                    
G------------------------|--------------------|--------------------|
D---0--0-----0-----------|--------------------|--------------------|
A---------2-----0--1--2--|--3--3-----0--3--3--|--------------------|
E------------------------|--------------------|--3--3-----0--3--3--|
                                                                                
G---------------------|--------------------------|
D---2--2-----0--2--2--|--0--0--------2--0--------|
A---------------------|-----------2--------3--0--|
E---------------------|--------------------------|
                                                                                
G---------------------------|--------------------------|
D---------------------------|--0--0--------0-----0--1--|
A---------------------2--3--|-----------2-----3--------|
E---3--3-----0--3--3--------|--------------------------|
                                                                                
G---------------------|--------------------------|
D---2--2-----0--2--2--|--0--0--------2--0--------|
A---------------------|-----------2--------0--2--|
E---------------------|--------------------------|
                                                                                
G---------------------------|--------------------|
D---------------------------|--------------------|
A---3--3-----0--3--3-----0--|--------------------|
E---------------------------|--3--3-----0--3--3--|
                                                                                
G---------------------------|--2--2--2--2--2--2--------|
D---2--2--2--2--2--2--4--5--|--------------------4--5--|
A---------------------------|--------------------------|
E---------------------------|--------------------------|
                                                                                
G---2--2--2--2--2--2--2--2--|
D---------------------------|
A---------------------------|
E---------------------------|
                                                                            
       Ponte                                                                   
G---|--------------------------|--------------------------|
D---|--------0-----------0-----|--------------------------|
A---|--3--3-----3--3--3-----3--|--2--2--3--2--2--2--3--2--|
E---|--------------------------|--------------------------|
                                                                                
                                                                    
G---------------------------|--------------------------|
D---------------------------|--------------------------|
A---0--0--2--0--0--0--2--0--|--------------------0--2--|
E---------------------------|--3--3--3--3--3--3--------|
                                                                                
G---------------------------|--------------------------|
D---------0-----------0-----|--------------------------|
A---3--3-----3--3--3-----3--|--2--2--3--2--2--2--3--2--|
E---------------------------|--------------------------|
                                                                                
G---------------------------|--2--2--2--2--2--0--2--4--|
D---------------------4--5--|--------------------------|
A---0--0--0--0--0--0--------|--------------------------|
E---------------------------|--------------------------|		   
AcordesyTabs.com © 2008 Acordes y Tablaturas para guitarra. Tabs and Chords for guitar. Aviso Legal - Contacto
El uso de este sitio está sujeto a la aceptación de los términos y condiciones (26 usuarios online)