tablaturas, partituras y acordes para guitarra
Busca por banda/artista:
 
y/o título de la canción:
A B C D E F G H I J K L M N O P Q R S T U V W X Y Z 0 1 2 3 4 5 6 7 8 9 / Top 100 tabs
Categorías
Usuarios
usuario:
Darse de alta
password:
Artistas más visitados
Publicidad
TOP acordes y tablaturas de Yngwie malmsteen


Seventh sign
de Yngwie malmsteen
Puntúa este acorde/tab:      
(0.8/5)
Reportar este acorde/tab
  Añadir a tus favoritos
  Imprimir
-----------------------------------------------------------------|------------
----13-11-13-(b9)13-8-13-----------------(b9)--13-11-(b9)8---------8---|------------
-10--------------------10--(b9)-10--12-----------------10-(b9)10---(b9)|------------
-----------------------------------------------------------------|------------
-------------------------10-10--10--10---------------------------|------------
-----------------------------------------------------------------|------------
                                                                              
-------------------------------------------------------------------|----------
----13-11-13-(b9)13-8-13-----------------(b9)--13-11-(b9)8---10-11-13-10-|----------
-10--------------------10--(b9)-10--12-------------------------------|----------
-------------------------------------------------------------------|----------
-------------------------10-10--10--10-----------------------------|----------
-------------------------------------------------------------------|----------                                                                             

----13-11-13-(b9)13-8-13---------------------13-11-(b9)---|----13-11-13-10-13-8---
-11--------------------11--10--11--13--14----------13-|-----------------------
-------------------------10--10--10--10---------------|-----------------------
------------------------------------------------------|-----------------------
------------------------------------------------------|-----------------------
------------------------------------------------------|-----------------------                                                                            

-13--------------------(b9)|--11-(b9)11-8-11-6-11-------------8-(b9)11|--(b9)8-(b9)6-(b9)-
----11-----------11-12---|--------------------(b9)-(b9)8-(b9)11-------|-------------
------11-10-11-13--------|--------------------------------------|-------------
-------------------------|--------------------------------------|-------------
-------------------------|--------------------------------------|-------------
-------------------------|--------------------------------------|-------------                                                                             

---(b9)--|-------8------8------8------8-12/15-12-----------------------------------------
-(b9)--8-|------8-8----8-8----8-8---8------------13--------------------------------------
-------|---10-----10-----10-----(b9)---------------12-------------------12-13------------
-------|--------------------------------------------15-14-10-12-14-15------------------
-------|-------------------------------------------------------------------------------
-------|-------------------------------------------------------------------------------
   
   Base 1
                                                                                                                                              
   |----------------------------------------------------------------------------|------------------
   |----------------------------------------------------------------------------|------------------
   |----------------------------------------------------------------------------|------------5-7-(b9)
2X |---10-(b9)7-(b9)7---------10-(b9)7-(b9)7---------10-(b9)7-(b9)7------7------------------|------5-7-(b9)------
   |-7------------10-(b9)-7------------10-(b9)-7------------10-(b9)--10-(b9)7-10-(b9)7-6-7|6-7-(b9)------------
   |----------------------------------------------------------------------------|------------------                                                       
  

    Base 2

         4X
   |----------------|----------------|----------------|----------------|-------------------------
   |----------------|----------------|----------------|-----10------10-|-------------------------
   |----------------|-----(b9)------(b9)-|-----10------10-|-----(b9)------(b9)-|-------------------------
   |-----(b9)------(b9)-|-----7-------7--|-----7-------7--|-----7-------7--|-------------------------
   |-----7-------7--|-0-0-----0-0----|-0-0-----0-0----|-0-0-----0-0----|-------------------------
   |-0-0-----0-0----|----------------|----------------|----------------|-8-10-8-7-5-8-7-5-3-7-5-3
              4x
--------|-------------|------------------------|-----------------------------------|
--------|-------------|----------------12--12--|-----------------------------------|
--------|-------------|----------------11--11--|-----------------------------------|
--------|-----(b9)----(b9)|-2—-4---10—-(b9)--14--13--|-------------------------------7-7-|
--------|-----7-----7-|-2--5---10--10----------|-7-7-7-7-7-7-7-7-7-7-(b9)(b9)10-10-----|
-2-5-3-2|-0-0---0-0---|-0--2-------------------|-----------------------------------|

-----------------------------------|------------------------------------|
-----------------------------------|------------------------------------|
-----------------------------------|------------------------------------|
-(b9)(b9)(b9)(b9)(b9)(b9)(b9)(b9)(b9)10-(b9)7---7------|-------------------------------7-7--|
--------------------------(b9)--10-(b9)|-7-7-7-7-7-7-7-7-7-7-(b9)(b9)10-10------|
-----------------------------------|------------------------------------|



---------------------------------|--------------------------------|--------------------------------
---------------------------------|--------------------------------|--------------------------------
---------------------------------|--------------------------------|--------------------------------
-(b9)(b9)(b9)(b9)(b9)(b9)(b9)(b9)----------------|--------------------------------|--------------------------------
---------------------------------|----------------------------5-5-|-7-7-7-7-7-7-7-7-7-8-7-5--------
-----------------4-4-5-5-7-7-8-8-|-5-5-5-5-5-5-5-5-5-5-7-7-8-8----|-------------------------8-7-6-3


---------------------------------|--------------------------------|-------------------------
---------------------------------|--------------------------------|-------------------------
---------------------------------|--------------------------------|-------------------------
---------------------------------|----------8-7-5---------------5-|-7-----------------------
-----------------------------5-5-|-7------4-------8-7-5-4-5-7-8---|--------7-8-7-5----------
-5-5-5-5-5-5-5-5-5-5-7-7-8-8-----|--------------------------------|----------------8-7-5-4--

--------------------------|---|------------|-------|----------|
--------------------------|---|------------|-------|-12--12---|
--------------------------|---|-7-10--(b9)---|-7--5--|-11--11---| repete Base 1 e começa Base 2
-----------------------5--|-7-|-7-10--10---|-8--7--|-14--13---|
-5-----5-5-5-5-5—7--8-----|---|------------|-------|----------|
--------------------------|---|------------|-------|----------|


(antes do solo)                                                                
------------------------------------------------|----------------------------------
---------------------------------------------4--|----------------------------------
---------------------------------------------2--|----------------------------------
-----------------------------------------5-4----|----------------------------------
-7---5-3-------5---3-2----------------2--3-2----|-7---5-3-------3-----5---3-2------
---------7-5-----------5-3---1--3-5-3-0---------|---------7-5-7---5-----------5-3--
                                                                             
------------------------------|------------------------------------------------
------------------------------|------------------------------------------------
----------------------------4-|-----------aqui-começa-o-solo-------------------
------------------------5-4-2-|------------------------------------------------
---2-----------------2--3-2---|------------------------------------------------
-5---3---1---1-3-5-3-0--------|------------------------------------------------		   
AcordesyTabs.com © 2008 Acordes y Tablaturas para guitarra. Tabs and Chords for guitar. Aviso Legal - Contacto
El uso de este sitio está sujeto a la aceptación de los términos y condiciones (30 usuarios online)