tablaturas, partituras y acordes para guitarra
Busca por banda/artista:
 
y/o título de la canción:
A B C D E F G H I J K L M N O P Q R S T U V W X Y Z 0 1 2 3 4 5 6 7 8 9 / Top 100 tabs
Categorías
Usuarios
usuario:
Darse de alta
password:
Artistas más visitados
Publicidad
TOP acordes y tablaturas de Finch


Awake
de Finch
Puntúa este acorde/tab:      
(0.4/5)
Reportar este acorde/tab
  Añadir a tus favoritos
  Imprimir
Intro

(Guitar 1) these are all harmonics 
 - play this four times then pause and guitar two comes in
E|--7-------------------------------------------------------------------------------
B|-----7-----7---------7--------7---------------------------------------------------
G|--------7-----7---------7--------7------------------------------------------------
D|------------------7---------7--------7--------------------------------------------
A|----------------------------------------------------------------------------------
D|----------------------------------------------------------------------------------

(Guitar 2)
 - hold out the last cord on the ninth fret then it goes into verse
E|-----------------------------------------------------------------------------------
B|-----------------------------------------------------------------------------------
G|-----------------------------------------------------------------------------------
D|-(b9)(b9)(b9)(b9)0-0-0-0--0-0-0-0-0-0-0-0-0-0-0-0---------(b9)-------------------------------
A|-(b9)(b9)(b9)(b9)0-0-0-0--0-0-0-0-0-0-0-0-0-0-0-0---------(b9)-------------------------------
D|-(b9)(b9)(b9)(b9)0-0-0-0--0-0-0-0-0-0-0-0-0-0-0-0---------(b9)-------------------------------

Verse
(Guitar 1)
 - These are also harmonics, repeated     *One devotion�
E|-----------------------------------------------------------------------------------
B|---------------5------------------5------------------------------------------------
G|--7--------7-----5--7--------7-----5--7--------------------------------------------
D|-----------------------------------------------------------------------------------
A|-----------------------------------------------------------------------------------
D|-----------------------------------------------------------------------------------

(Guitar 2)
* Silence broken�
E|-----------------------------------------------------------------------------------
B|-----------------------------------------------------------------------------------
G|--------------------------(b9)-------------------------------------------------------
D|--------11--(0-0-0-0)-------0------------------------------------------------------
A|-----(b9)-----(0-0-0-0)---------0----------------------------------------------------
D|--(b9)--------(0-0-0-0)--------------------------------------------------------------

Chorus
(Guitar 1)
* No more feeling�..
E|-----------------------------------------------------------------------------------
B|-----------------------------------------------------------------------------------
G|-----------------------------------------------------------------------------------
D|--4-4-4-4-5-5-5-5-0-0-0-0-0-0-0-0--------------------------------------------------
A|--4-4-4-4-5-5-5-5-0-0-0-0-0-0-0-0--------------------------------------------------
D|--4-4-4-4-5-5-5-5-0-0-0-0-0-0-0-0--------------------------------------------------



(Guitar 2)
E|-----------------------------------------------------------------------------------
B|-----------------------------------------------------------------------------------
G|---------------------11-11-----11-11---------------------11-11-12--12--(b9)(b9)-------
D|-4-4-4-4-5-5-5-5-0-0-x--x--0-0-x--x--4-4-4-4-5-5-5-5-0-0-x--x--x---x---x-x--------
A|-4-4-4-4-5-5-5-5-0-0-(b9)-(b9)-0-0-(b9)-(b9)-4-4-4-4-5-5-5-5-0-0-(b9)-(b9)-10--10--7-7--------
D|-4-4-4-4-5-5-5-5-0-0-------0-0-------4-4-4-4-5-5-5-5-0-0--------------------------

-Back to intro

-Verse 2 is same as verse 1

Chorus (part right before bridge)
(Both Guitars)
*But now I�m awake�.
E|----------------------------------------------------------------------------------
B|----------------------------------------------------------------------------------
G|----------------------------(b9)------(b9)-------(b9)-------(b9)------------------------
D|--4----------5----------------0-------0--------0--------0----------------------
A|--4----------5-------------------------------------------------------------------
D|--4----------5----------0-------0--------0--------0----------------------------

Bridge
(Guitar 1) Clean
E|-----------------------------------------------------------------------------------
B|--4--2--0------------4--2--0------------4--2--0------------------------------------
G|------------4--2--0------------4--2--0------------4--2--0--4--2--0--4--2--0--------
D|-----------------------------------------------------------------------------------
A|-----------------------------------------------------------------------------------
D|-----------------------------------------------------------------------------------

(Guitar 2) Distortion
-	Comes in later (moaning)
E|-----------------------------------------------------------------------------------
B|-----------------------------------------------------------------------------------
G|----------------------(b9)-----------------------------------------------------------
D|------------11----------0--------------------------------------------------------
A|-----(b9)---------------------0-----------------------------------------------------
D|--(b9)----(b9)--------0---------------------------------------------------------------

Bridge (when it breaks into it)
(Guitar 1)
*Awake! She prays the silence will stop�
E|-----------------------------------------------------------------------------------
B|-----------------------------------------------------------------------------------
G|-----------------------------------------------------------------------------------
D|--(b9)(b9)(b9)(b9)-(b9)(b9)(b9)(b9)-0-0-0-0--0-0-0-0-----------------------------------------------
A|--(b9)(b9)(b9)(b9)-(b9)(b9)(b9)(b9)-0-0-0-0--0-0-0-0-----------------------------------------------
D|--(b9)(b9)(b9)(b9)-(b9)(b9)(b9)(b9)-0-0-0-0--0-0-0-0-----------------------------------------------

Chorus to end the song		   
AcordesyTabs.com © 2008 Acordes y Tablaturas para guitarra. Tabs and Chords for guitar. Aviso Legal - Contacto
El uso de este sitio está sujeto a la aceptación de los términos y condiciones (19 usuarios online)