tablaturas, partituras y acordes para guitarra
Busca por banda/artista:
 
y/o título de la canción:
A B C D E F G H I J K L M N O P Q R S T U V W X Y Z 0 1 2 3 4 5 6 7 8 9 / Top 100 tabs
Categorías
Usuarios
usuario:
Darse de alta
password:
Artistas más visitados
Publicidad
TOP acordes y tablaturas de Yngwie malmsteen


Estás en: Inicio > Letra Y > Acordes y tablaturas de Yngwie malmsteen > 5th symphony beethoven's
5th symphony beethoven's
de Yngwie malmsteen
Puntúa este acorde/tab:      
(0.7/5)
Reportar este acorde/tab
  Añadir a tus favoritos
  Imprimir
E|------------------------------| 
B|------------------------------| 
G|------------------7-7-7-4~~~~-| 
D|-4-4-4-5p4-4-4----------------| 
A|---------------5--------------| 
E|------------------------------| 
 
E|------------------------------| 
B|------------------------------| 
G|------------------(b9)(b9)(b9)6~~~~-| 
D|-4-4-4-5p4-4-4----------------| 
A|---------------4--------------| 
E|------------------------------| 
 
E|-----------------------| 
B|-----------------------| 
G|-11-11-(b9)7--11-11-(b9)7--| 
D|-----------------------| 
A|-----------------------| 
E|-----------------------| 
 
E|-----------------------| 
B|-----------------------| 
G|-11-11--(b9)-7--4--------| 
D|-11-11--(b9)-7--4---4----| 
A|-(b9)-(b9)--7--5--2---4----| 
E|------------------2----| 
 
:---------------------------------------------| 
:---------------------------------------------| 
:-12-12-12-(b9)---------------------------------| 
:------------11-11-11-8-----------------------| 
:-----------------------10-10-10-7------------| 
:-----------------------------------2-2-2-2-2-| 
 
:----------------------------------------------------------------------------------------| 
:----------------------------------------------------------------------------------------| 
:-12-12-12-(b9)-----------------------------------------------------------4-6-7p6----7-9p8-| 
:------------11-11-11-8-------------------------------------(b9)11-12---5----------(b9)------| 
:-----------------------10-10-10-(b9)7-------------7-(b9)10--10------------------------------| 
:------------------------------------10-(b9)7---10-----------------------------------------| 
 
E|------------------------------------------------------------------------------| 
B|------------------------------------------------------------------------------| 
G|----(b9)10p(b9)-----11-13p12-----12-14p13-----13-15p14-----14-15p14-----14-16~~~~-| 
D|-11----------13-----------14-----------15-----------16-----------16-----------| 
A|------------------------------------------------------------------------------| 
E|------------------------------------------------------------------------------| 
 
E|----------------------------------------------------------------------------------------| 
B|-14h15p14h15p14h15p14h15p14--14~~~~---------------------------------------15-18-15------| 
G|-------------------------------------/17-17p14----14-/17-20p17----17--/16-----------/18-| 
D|-----------------------------------------------16--------------1(b9)----------------------| 
A|----------------------------------------------------------------------------------------| 
E|----------------------------------------------------------------------------------------| 
 
:--------------------17-19bf~~~~~~~~~---------| 
:-17-20p17-----17-20--------------------------| 
:-----------1(b9)----------------------------2--| 
:------------------------------------------2--| 
:------------------------------------------0--| 
:---------------------------------------------| 
 
E|----------------------------------------------------------------------------------14-17b-| 
B|---------(b9)10~~~~~--------------------7------7-8----7-8-8h10-10~~~-------------14--------| 
G|-10-(b9)10-------------7---6-7-(b9)---7-(b9)-----7-----------------------------14-16-----------| 
D|-----------------------7--------7--------7--------7-------------------16-----------------| 
A|-----------------------------------------------------------------------------------------| 
E|-----------------------------------------------------------------------------------------| 
 
E|-1(b9)17-------------------------------------------------------------------------------| 
B|-------20-20-1(b9)17-1(b9)-20-1(b9)17----1(b9)17/15-----17-15/12-----14-12/10----12-10-------| 
G|--------------------------------1(b9)----------17-----------14----------12-------12-10-| 
D|-------------------------------------------------------------------------------------| 
A|-------------------------------------------------------------------------------------| 
E|-------------------------------------------------------------------------------------| 
 
E|----------------------------------------------| 
B|----------------------------------------------| 
G|-10h12p10----------------------------(b9)(b9)(b9)---| 
D|----------12p10h12p10h12p10----------7-7-7--7-| 
A|----------------------------12-10-----------5-| 
E|----------------------------------------------| 
 
:------------------------------------------| 
:------------------------------------------| 
:------------------------------------------| 
:-2-2-2--7---2-2-2--7---2-2-2--7---------4-| 
:-0-0-0--5---0-0-0--5---0-0-0--5--4-4-4--2-| 
:---------------------------------2-2-2----| 
 
E|----------------------------------------------------------------------------------------| 
B|-12-12-12-12-12-12-12--12-12-12-12-12-12-12--12-12-12-12-12-12-12--12-12-12-12-12-12-12-| 
G|----------------------------------------------------------------------------------------| 
D|----------------------------------------------------------------------------------------| 
A|----------------------------------------------------------------------------------------| 
E|----------------------------------------------------------------------------------------| 
 
E|-----------------------------------------------------------------------------------------| 
B|-13-13-13-13-13-13-13--13-13-13-13-13-13-13---13-13-13-13-13-13-13--13-13-13-13-13-13-13-| 
G|-----------------------------------------------------------------------------------------| 
D|-----------------------------------------------------------------------------------------| 
A|-----------------------------------------------------------------------------------------| 
E|-----------------------------------------------------------------------------------------| 
 
                            bar////////// 
:-------------------------19b----------------| 
:--------------------------------------------| 
:-6b--9b--11b--14b---18b---------------------| 
:--------------------------------------------| 
:--------------------------------------------| 
:--------------------------------------------| 
 
E|-------------15p14-15p14-15p14-15p14--------------15p14-15p14-15p14-15p14--17-17---------| 
B|-------14h15--------------------------------14h15--------------------------------20p19p17| 
G|-14h15--------------------------------14h15----------------------------------------------| 
D|-----------------------------------------------------------------------------------------| 
A|-----------------------------------------------------------------------------------------| 
E|-----------------------------------------------------------------------------------------| 
 
:-15-15-----------14-14----------12-12----------10-10-----------(b9)(b9)--------7-7--------| 
:-------19p17p15--------17p15p14-------15p13p12-------14p12p10------12p10p(b9)----10p9p7-| 
:--------------------------------------------------------------------------------------| 
:--------------------------------------------------------------------------------------| 
:--------------------------------------------------------------------------------------| 
:--------------------------------------------------------------------------------------| 
 
E|-5-5-------3-3------------7-----7---7----7----7----7---7----7---7-----7---7----7---7----7| 
B|-----8p7p5-----7p5p3----------------------------------------------------(b9)--10---(b9)--10--| 
G|----------------------/10----7----(b9)--10----(b9)--10---(b9)--10---(b9)--10---------------------| 
D|-----------------------------------------------------------------------------------------| 
A|-----------------------------------------------------------------------------------------| 
E|-----------------------------------------------------------------------------------------| 
 
:------------------------------------------------------------------------------------------| 
:-(b9)12-14-15-12-14-15-17-14-15-17-1(b9)15-17-1(b9)20-17---------------------12-----------------| 
:----------------------------------------------------11-13-15-11--13-15----11-12-----------| 
:--------------------------------------------------------------------------------12-14--11-| 
:------------------------------------------------------------------------------------------| 
:------------------------------------------------------------------------------------------| 
 
E|-------------------------------------------------------------------------------------| 
B|----------------11-12~~~~~----12/------15-17-1(b9)15--------------------------5-3------| 
G|-----(b9)11-10-11-------------------------------------15-16-18-15---2-4-6-2-------4----| 
D|-12-----------------------------------------------------------------------------4--4-| 
A|--------------------------------------------------------------------------------2--4-| 
E|-----------------------------------------------------------------------------------2-| 
                                            
:-----------------------------------------------/------------------------------------------| 
:-/15-14-12-10-8-7-------------14bf-14bf---14bf/-14-14-14-14-14-14-------------------------| 
:---------------------------------------------------------------------11h12p11h12p11h12p11-| 
:-------------------5-4-2-0----------------------------------------------------------------| 
:------------------------------------------------------------------------------------------| 
:------------------------------------------------------------------------------------------| 
 
E|--------------------------------------------------------------------------| 
B|-11h12p11h12p11-----------------------------------------------------------| 
G|----------------11h12p11h12p11-------(b9)(b9)(b9)(b9)-6---/11-11-------/11-11-----| 
D|-------------------------------12/---(b9)(b9)(b9)(b9)-6----------12-----------12--| 
A|-------------------------------------7-7-7-7--4---------------------------| 
E|--------------------------------------------------------------------------| 
 
:---------------------------------| 
:---------------------------------| 
:-6-6-6-6-7--6-6-6-6-7--6-6-6-6-7-| 
:-6-6-6-6-7--6-6-6-6-7--6-6-6-6-7-| 
:-4-4-4-4-5--4-4-4-4-5--4-4-4-4-5-| 
:---------------------------------| 
 
E|-------------------| 
B|-------------------| 
G|-6-7-6-7-6-7-6-7-6-| 
D|-6-7-6-7-6-7-6-7-6-| 
A:-4-5-4-5-4-5-4-5-4-| 
E|-------------------| 
 
:--------------| 
:--------------| 
:-7------------| 
:-7--7---2-----| 
:-5--7---2-----| 
:----5---0-----|		   
AcordesyTabs.com © 2008 Acordes y Tablaturas para guitarra. Tabs and Chords for guitar. Aviso Legal - Contacto
El uso de este sitio está sujeto a la aceptación de los términos y condiciones (26 usuarios online)