tablaturas, partituras y acordes para guitarra
Busca por banda/artista:
 
y/o título de la canción:
A B C D E F G H I J K L M N O P Q R S T U V W X Y Z 0 1 2 3 4 5 6 7 8 9 / Top 100 tabs
Categorías
Usuarios
usuario:
Darse de alta
password:
Artistas más visitados
Publicidad
TOP acordes y tablaturas de Yngwie malmsteen


2003
de Yngwie malmsteen
Puntúa este acorde/tab:      
(0.7/5)
Reportar este acorde/tab
  Añadir a tus favoritos
  Imprimir
Gtr I (E A D G B E) - 'Hapsichord' 
Gtr II (E A D G B E) - 'Guitar2' 
Gtr III (E A D G B E) - 'Yngwie2' 
 
  Q=214 
 12/8 
  Gtr I 
  W              E E E E E E E E E E E E 
|--------------|-------------------------| 
|--------------|-------------------------| 
|--------------|-------------------------| 
|--------------|-------------------------| 
|--------------|-------------------3-2-0-| 
|--------------|-1-1-1-1-1-1-1-1-1-------| 
| 
| Gtr III 
| W              E E E E E E E E E E E E 
|--------------|-------------------------| 
|--------------|-------------------------| 
|--------------|-------------------------| 
|--------------|-------------------------| 
|--------------|-------------------3-2-0-| 
|--------------|-1-1-1-1-1-1-1-1-1-------| 
 
  E E E E E E   E E E   E E E   Q.   E E E E E E E E E 
|-----------------------------|-------------------------| 
|-----------------------------|-------------------------| 
|-----------------------------|-2-----------------------| 
|-----------------------------|-2----------------2-0----| 
|-----------------------5-3-2-|-0----0-0-0-0-0-0-----3--| 
|-4-4-4-4-4-4---4-4-4---------|-------------------------| 
| 
| E E E E E S S E E S S E E E   Q.   E E E E E E E E E 
|-----------------------------|-------------------------| 
|-----------------------------|-------------------------| 
|-----------------------------|-2-----------------------| 
|-----------------------------|-2----------------2-0----| 
|-----------------------5-3-2-|-0----0-0-0-0-0-0-----3--| 
|-4-4-4-4-4-4---4-4-4---------|-------------------------| 
 
  H.      +Q.   E E E   E E E E E E E E E E E E 
|---------------------|-------------------------| 
|---------------------|-------------------------| 
|---------------------|-------0-----------------| 
|---------------7-5-3-|-2-2-2---3-2-0-0-0-3-2-0-| 
|-5-------(5)---------|-------------------------| 
|---------------------|-------------------------| 
| 
| H.      +Q.   E E E   E E E E E E E E E E E E 
|---------------------|-------------------------| 
|---------------------|-------------------------| 
|---------------------|-------0-----------------| 
|---------------7-5-3-|-2-2-2---3-2-0-0-0-3-2-0-| 
|-5-------(5)---------|-------------------------| 
|---------------------|-------------------------| 
 
  E   E   E E E E Q  E E E E   E E E E E E E E E   E E E 
|----------------------------|---------------------------| 
|----------------------------|---------------------------| 
|----------------------2-0---|-------0-------------------| 
|-----------2-0------------3-|-2-2-2---3-2-0-0-0---3-2-0-| 
|-3---3---3-----3-2----------|---------------------------| 
|----------------------------|---------------------------| 
| 
| S S S S E E E E Q  E E E E   E E E E E E E E S S E E E 
|----------------------------|---------------------------| 
|----------------------------|---------------------------| 
|----------------------2-0---|-------0-------------------| 
|-----------2-0------------3-|-2-2-2---3-2-0-0-0---3-2-0-| 
|-3---3---3-----3-2----------|---------------------------| 
|----------------------------|---------------------------| 
 
  E   E E   E E E Q  E E E E   E E E E E E E E E E E E 
|----------------------------|--------------------------| 
|----------------------------|--------------------------| 
|----------------------------|--------------------------| 
|-----------2-0--------------|--------------------------| 
|-3---3-3-------3-2----3-2-0-|-------------------3-2-0--| 
|----------------------------|-1-1-1-1-1-1-1-1-1--------| 
| 
| S S E S S E E E Q  E E E E   E E E E E E E E E E E E 
|----------------------------|--------------------------| 
|----------------------------|--------------------------| 
|----------------------------|--------------------------| 
|-----------2-0--------------|--------------------------| 
|-3---3-3-------3-2----3-2-0-|-------------------3-2-0--| 
|----------------------------|-1-1-1-1-1-1-1-1-1--------| 
 
  E E E E E E E E E E E E   E   E E E E E E E E E E E   H.      +Q.   E E E 
|-------------------------|---------------------------|---------------------| 
|-------------------------|---------------------------|---------------------| 
|-------------------------|---------------------------|---------------------| 
|-------------------------|---------------------------|---------------7-5-3-| 
|-------------------5-3-2-|-0---0-0-0-0-0-0-0-0-0-2-3-|-5-------(5)---------| 
|-4-4-4-4-4-4-4-4-4-------|---------------------------|---------------------| 
| 
| E E E E E E E E E E E E   S S E E E E E E E E E E E   H.      +Q.   E E E 
|-------------------------|---------------------------|---------------------| 
|-------------------------|---------------------------|---------------------| 
|-------------------------|---------------------------|---------------------| 
|-------------------------|---------------------------|---------------7-5-3-| 
|-------------------5-3-2-|-0---0-0-0-0-0-0-0-0-0-2-3-|-5-------(5)---------| 
|-4-4-4-4-4-4-4-4-4-------|---------------------------|---------------------| 
 
  E E E E E E E E E E E E   E E E E E E E E E E E E   E E E E E E E E E E E E 
|-------------------------|-------------------------|--------------------------| 
|-------------------------|-------------------------|--------------------------| 
|-------0-----------------|-------------------2-0---|-------0------------------| 
|-2-2-2---3---------3-2-0-|-------2-0-------------3-|-2-2-2---3-2-0-0-0-3-2-0--| 
|-----------5-5-5-5-------|-3-3-3-----3-2-2---------|--------------------------| 
|-------------------------|-------------------------|--------------------------| 
| 
| E E E E E E E E E E E E   E E E E E E E E E E E E   E E E E E E E E E E E E 
|-------------------------|-------------------------|--------------------------| 
|-------------------------|-------------------------|--------------------------| 
|-------0-----------------|-------------------2-0---|-------0------------------| 
|-2-2-2---3---------3-2-0-|-------2-0-------------3-|-2-2-2---3-2-0-0-0-3-2-0--| 
|-----------5-5-5-5-------|-3-3-3-----3-2-2-2-------|--------------------------| 
|-------------------------|-------------------------|--------------------------| 
 
  E E   E E E E E E E  S  S  S S S S 
|---------------------13-12-10-8-7---| 
|----------------------------------(b9)| 
|------------------------------------| 
|---------2-0------------------------| 
|-3-3---3-----3-2--------------------| 
|------------------------------------| 
| 
| E S S E E E E E E E  S  S  S S S S 
|---------------------13-12-10-8-7---| 
|----------------------------------(b9)| 
|------------------------------------| 
|---------2-0------------------------| 
|-3-3---3-----3-2--------------------| 
|------------------------------------| 
 
   E E E  S  S  S S S S  Q.    S  S  S S S S 
|--------13-12-10-8-7---------13-12-10-8-7---| 
|-10------------------(b9)10-----------------8-| 
|--------------------------------------------| 
|--------------------------------------------| 
|--------------------------------------------| 
|--------------------------------------------| 
| 
|  E E E  S  S  S S S S  Q.    S  S  S S S S 
|--------13-12-10-8-7---------13-12-10-8-7---| 
|-10------------------(b9)10-----------------8-| 
|--------------------------------------------| 
|--------------------------------------------| 
|--------------------------------------------| 
|--------------------------------------------| 
 
  Gtrs I, III 
   E E E  S  S  S S S S  Q.    S  S  S S S S    E E E E E E  E E E E E E 
|--------13-12-10-8-7---------13-12-10-8-7---|----------------------------| 
|-10------------------(b9)10-----------------8-|-10-----(b9)----10-----(b9)-----| 
|--------------------------------------------|----------------------------| 
|--------------------------------------------|----------------------------| 
|--------------------------------------------|----------------------------| 
|--------------------------------------------|----------------------------| 
 
   E E E E E E  E E E E E E    E E E Q.   E E E Q.      W         +E   +Q. 
|---------------------------|------------------------|------------------------| 
|-10-----(b9)----10-----(b9)----|-10----------(b9)---------|-10--------(10)-(10)----| 
|---------------------------|------------------------|--(b9)--------(9)--(9)----| 
|---------------------------|------------------------|--7---------(7)--(7)----| 
|---------------------------|------------------------|------------------------| 
|---------------------------|------------------------|------------------------| 
 
                          Q=120 
                         3/4 
   W         +E   +Q.      +H. 
|-17--------(17)-(17)---|-(17)--------| 
|-----------------------|-------------| 
|-----------------------|-------------| 
|-----------------------|-------------| 
|-----------------------|-------------| 
|-----------------------|-------------| 
| 
| Gtr II 
|  W                        W 
|-----------------------|-------------| 
|-----------------------|-------------| 
|-----------------------|-------------| 
|-----------------------|-------------| 
|-----------------------|-------------| 
|-----------------------|-------------| 
 
   +H.          W           H. 
|-(17)--------|----------|-----------------| 
|-------------|----------|-----------------| 
|-------------|----------|-17--------------| 
|-------------|----------|-----------------| 
|-------------|----------|-----------------| 
|-------------|----------|-----------------| 
| 
|   W           W           E  E E E  E  E 
|-------------|----------|-------5-8-12----| 
|-------------|----------|-----5--------13-| 
|-------------|----------|--2--------------| 
|-------------|----------|-----------------| 
|-------------|----------|-----------------| 
|-------------|----------|-----------------| 
 
   H.                   H.                      H. 
|--------------------|-----------------------|----------------| 
|--------------------|-----------------------|----------------| 
|-17-----------------|-16--------------------|----------------| 
|--------------------|-----------------------|-17-------------| 
|--------------------|-----------------------|----------------| 
|--------------------|-----------------------|----------------| 
| 
|  E   E  E  E  E  E    E   E  E  S  S  E  E    E  E E E E  E 
|--------------12----|-----------------------|---------3-7-12-| 
|-----------13----13-|-----------------------|-------5--------| 
|--------12----------|-----------16-17-16----|-----4----------| 
|-----14-------------|--------17----------17-|--2-------------| 
|-15-----------------|-----17----------------|----------------| 
|--------------------|-15--------------------|----------------| 
 
   H.                   H.                   H. 
|--------------------|--------------------|------------------| 
|--------------------|--------------------|------------------| 
|--------------------|--------------------|------------------| 
|-1(b9)----------------|--------------------|------------------| 
|--------------------|-21-----------------|-23---------------| 
|--------------------|--------------------|------------------| 
| 
|  E   E  E  E  E  E    E   E  E  E  E  E    E   E E E E E 
|--------------------|-----------10-14----|------------------| 
|-----------12-13----|--------10-------15-|------------5-3---| 
|--------14-------14-|--------------------|----------7-------| 
|-----14-------------|-----12-------------|--------(b9)--------| 
|-12-----------------|--------------------|-----11-----------| 
|--------------------|-14-----------------|-12---------------| 
 
   Q    Q    Q      H.              H. 
|----------------|---------------|---------------| 
|----------------|---------------|---------------| 
|----------------|---------------|-17------------| 
|-----------21---|-1(b9)-----------|---------------| 
|------23--------|---------------|---------------| 
|-24-------------|---------------|---------------| 
| 
|  E E  E E  E E    E  E E E E E    E  E E E E E 
|---------0------|---------0-----|-----------0-3-| 
|-------0----0---|-------1---1---|---------1-----| 
|----1---------1-|-----2-------2-|-------0-------| 
|--2-------------|--2------------|-----2---------| 
|----------------|---------------|--3------------| 
|----------------|---------------|---------------| 
 
   H.               H.               H. 
|----------------|----------------|---------------| 
|----------------|----------------|---------------| 
|-16-------------|----------------|---------------| 
|----------------|-17-------------|---------------| 
|----------------|----------------|-1(b9)-----------| 
|----------------|----------------|---------------| 
| 
|  E  E E E E  E    E   E E E E E    E  E E E E E 
|---------3-7-10-|--------------7-|-----------5-8-| 
|-------3--------|------------8---|---------6-----| 
|-----4----------|----------(b9)----|-------5-------| 
|--5-------------|--------(b9)------|-----7---------| 
|----------------|-----10---------|--8------------| 
|----------------|-12-------------|---------------| 
 
   H        Q      H.              H. 
|---------------|---------------|---------------| 
|---------------|---------------|---------------| 
|---------------|---------------|---------------| 
|-18------------|-1(b9)-----------|-1(b9)-----------| 
|----------1(b9)--|---------------|---------------| 
|---------------|---------------|---------------| 
| 
|  E E E E  E E    E  E E E E E    E  E E E E E 
|---------------|---------0-----|---------0-----| 
|--------3--5-3-|-------1---1---|-------1---1---| 
|------4--------|-----2-------2-|-----2-------2-| 
|----6----------|--2------------|--2------------| 
|--7------------|---------------|---------------| 
|---------------|---------------|---------------| 
 
   H.              H.              H        Q 
|---------------|---------------|----------------| 
|---------------|---------------|----------------| 
|-17------------|-17------------|-16-------14----| 
|---------------|---------------|----------------| 
|---------------|---------------|----------------| 
|---------------|---------------|----------------| 
| 
|  E  E E E E E    E  E E E E E    E E E E  E  E 
|---------0-----|-----------0-3-|--------3--7-10-| 
|-------1---1---|---------1-----|------3---------| 
|-----2-------2-|-------0-------|----4-----------| 
|--2------------|-----2---------|--5-------------| 
|---------------|--3------------|----------------| 
|---------------|---------------|----------------| 
 
   H.               H.              H. 
|----------------|---------------|---------------| 
|----------------|-10------------|---------------| 
|-12-------------|---------------|-11------------| 
|----------------|---------------|---------------| 
|----------------|---------------|---------------| 
|----------------|---------------|---------------| 
| 
|  E   E E E E E    E  E E E E E    E  E E E E E 
|--------------7-|---------------|---------------| 
|------------8---|---------5-----|---------1-----| 
|----------(b9)----|-------5---5---|-------2---2---| 
|--------(b9)------|-----7-------7-|-----4-------4-| 
|-----10---------|--7------------|--5------------| 
|-12-------------|---------------|---------------| 
 
  H.             H.              H. 
|--------------|--------------|---------------| 
|-(b9)-----------|--------------|-10------------| 
|--------------|--------------|---------------| 
|--------------|-(b9)-----------|---------------| 
|--------------|--------------|---------------| 
|--------------|--------------|---------------| 
| 
| E  E E E E E   E  E E E E E    E  E E E E E 
|--------------|--------------|---------0-----| 
|------0-3-5-3-|------0-------|-------1---1---| 
|----1---------|----1---1---1-|-----2-------2-| 
|-2------------|-2--------2---|--2------------| 
|--------------|--------------|---------------| 
|--------------|--------------|---------------| 
 
  H.             H        Q     H. 
|-8------------|-8------------|--------------| 
|--------------|---------10---|-8------------| 
|--------------|--------------|--------------| 
|--------------|--------------|--------------| 
|--------------|--------------|--------------| 
|--------------|--------------|--------------| 

| E  E E E E E   E E E E  E E   E  E E E E E 
|--------------|-------3------|--------------| 
|--------1-----|-----3----3---|--------5-----| 
|------0---0---|-0-4--------4-|----0-4---4---| 
|----2-------2-|--------------|-2----------5-| 
|-3------------|--------------|--------------| 
|--------------|--------------|--------------| 
 
   H.             H.              H. 
|---------------|--------------|---------------| 
|-10------------|-(b9)-----------|-10------------| 
|---------------|--------------|---------------| 
|---------------|--------------|---------------| 
|---------------|--------------|---------------| 
|---------------|--------------|---------------| 


|  E  E E E E E   E  E E E E E    E  E E E E E 
|---------1-----|--------------|---------------| 
|-------1---1---|------0-3-----|-------5-------| 
|-----2-------2-|----1-----4---|-----5---5-----| 
|--3------------|-2----------6-|--7--------7---| 
|---------------|--------------|-------------7-| 
|---------------|--------------|---------------| 
 
   H       Q     H.             Q   E S S Q 
|--------------|-8------------|-8---7-8-7-5---| 
|-10-----------|--------------|---------------| 
|--------------|--------------|---------------| 
|--------------|--------------|---------------| 
|--------------|--------------|---------------| 
|--------------|--------------|---------------| 


|  E E E E E E   E  E E E E E   E E E E   E E 
|--------------|------------3-|---------------| 
|--------5-----|----------5---|-5-------------| 
|------5---5---|--------5-----|---5-----------| 
|----7-------7-|------5-------|-----5---------| 
|--7-----------|----7---------|-------7-----7-| 
|--------------|-8------------|-----------8---| 
 
  H.               H.                   H. 
|-3-------------|--3-----------------|------------------| 
|---------------|--------------------|--5---------------| 
|---------------|--------------------|------------------| 
|---------------|--------------------|------------------| 
|---------------|--------------------|------------------| 
|---------------|--------------------|------------------| 


| E  E E E E  E    E   E  E  E  E  E    E   E E E E E 
|--------3-7-10-|--------------------|--------------7---| 
|------3--------|-12-----------------|------------8-----| 
|----4----------|-----12-------------|----------(b9)------| 
|-5-------------|--------12----------|--------(b9)--------| 
|---------------|-----------14----14-|-----10-----------| 
|---------------|--------------15----|-12---------------| 
  
  H.                H.             H. 
|-----------------|--------------|--------------| 
|-5---------------|-6------------|-6------------| 
|-----------------|--------------|--------------| 
|-----------------|--------------|--------------| 
|-----------------|--------------|--------------| 
|-----------------|--------------|--------------| 


| E  E E  E  E  E   E  E E E E E   E  E E E E E 
|-----------------|----------5---|--------------| 
|-8---------------|--------6---6-|------------6-| 
|----(b9)-----------|------5-------|-5--------5---| 
|------(b9)---------|----7---------|----7---7-----| 
|--------10----10-|-8------------|------8-------| 
|-----------12----|--------------|--------------| 
 
  H.             H.              H. 
|--------------|---------------|--------------| 
|-4------------|-4-------------|-5------------| 
|--------------|---------------|--------------| 
|--------------|---------------|--------------| 
|--------------|---------------|--------------| 
|--------------|---------------|--------------| 

| E  E E E E E   E  E  E E E E   E  E E E E E 
|--------------|---------------|--------------| 
|--------0-3---|---------------|------0-------| 
|------1-----4-|-------------4-|----1---1---1-| 
|----3---------|-6---------6---|-2--------2---| 
|-5------------|----8----8-----|--------------| 
|--------------|------10-------|--------------| 
 
  H.             H.             Q   Q   E E 
|--------------|-4------------|-4---5---7-5-| 
|-5------------|--------------|-------------| 
|--------------|--------------|-------------| 
|--------------|--------------|-------------| 
|--------------|--------------|-------------| 
|--------------|--------------|-------------| 
| 
| E  E E E E E   E  E E E E E   E E E E E E 
|--------------|--------1-----|-------------| 
|-0--------0---|----0-3---3---|-----0-3-----| 
|----1---1-----|-1----------4-|---1-----4---| 
|------2-----2-|--------------|-3---------6-| 
|--------------|--------------|-------------| 
|--------------|--------------|-------------| 
 
  H.             H.             H. 
|-5------------|-3------------|-2------------| 
|--------------|--------------|--------------| 
|--------------|--------------|--------------| 
|--------------|--------------|--------------| 
|--------------|--------------|--------------| 
|--------------|--------------|--------------| 

| E  E E E E E   E  E E E E E   E  E E E E E 
|--------------|--------0-----|--------------| 
|--------5-----|------1---1---|--------1-----| 
|------5---5---|----2-------2-|------2---2---| 
|----7-------7-|--------------|-0--4-------4-| 
|-7------------|--------------|--------------| 
|--------------|-3------------|--------------| 
 
  H.             H.             H       E.   S 
|-2------------|-1------------|-1-------1----1-| 
|--------------|--------------|----------------| 
|--------------|--------------|----------------| 
|--------------|--------------|----------------| 
|--------------|--------------|----------------| 
|--------------|--------------|----------------| 
| 
| E  E E E E E   E  E E E E E   E E E E E  E 
|--------------|--------1-----|-------1--------| 
|--------1-----|------1---1---|-----1---1------| 
|------2---2---|----2-------2-|---2--------2---| 
|----4-------4-|-3------------|-3--------------| 
|-5------------|--------------|----------------| 
|--------------|--------------|----------------| 
 
  S E.   H         H.              H. 
|----------------|---------------|---------------| 
|-4-4----4-------|-4-------------|-5-------------| 
|----------------|---------------|---------------| 
|----------------|---------------|---------------| 
|----------------|---------------|---------------| 
|----------------|---------------|---------------| 

| E    E E E E E   E  E  E E E E   E  E E E E E 
|----------------|---------------|---------------| 
|----------0-3---|---------------|------0-3------| 
|--------1-----4-|-------------4-|----1-----4----| 
|-0----3---------|-6---------6---|-2----------6--| 
|----------------|----8----8-----|---------------| 
|----------------|------10-------|---------------| 
 
  H.              Q   Q   Q    Q  Q  Q     Q   Q  Q    Q  Q  Q     Q  Q  Q 
|--------------|-13--12--10--|-8--7--5--|-12--10--8--|-7--5--4--|-10--8--7--| 
|-5------------|-------------|----------|------------|----------|-----------| 
|--------------|-------------|----------|------------|----------|-----------| 
|--------------|-------------|----------|------------|----------|-----------| 
|--------------|-------------|----------|------------|----------|-----------| 
|--------------|-------------|----------|------------|----------|-----------| 

| E  E E E E E    W            W           W           W           W 
|--------------|-------------|----------|------------|----------|-----------| 
|--------3-----|-------------|----------|------------|----------|-----------| 
|------4---4---|-------------|----------|------------|----------|-----------| 
|----6-------2-|-------------|----------|------------|----------|-----------| 
|-7------------|-------------|----------|------------|----------|-----------| 
|--------------|-------------|----------|------------|----------|-----------| 
 
  Q  Q  Q    Q  Q  Q    Q  Q  Q    H.        +H.        +H. 
|-5--4-----|-8--7--5--|-4--------|---------|----------|--------| 
|-------6--|----------|----6--5--|-6-------|-(6)------|-(6)----| 
|----------|----------|----------|---------|----------|--------| 
|----------|----------|----------|---------|----------|--------| 
|----------|----------|----------|---------|----------|--------| 
|----------|----------|----------|---------|----------|--------| 
 
  Q=88   Q=88 
 2/4    4/4 
  Gtr I 
  W      W          W          W          W 
|------|----------|----------|----------|------| 
|------|----------|----------|----------|------| 
|------|----------|----------|----------|------| 
|------|----------|----------|----------|------| 
|------|----------|----------|----------|------| 
|------|----------|----------|----------|------| 
 
             Q=60 
  W          W 
|----------|------*| 
|----------|------*| 
|----------|------*| 
|----------|------*| 
|----------|------*| 
|----------|------*|		   
AcordesyTabs.com © 2008 Acordes y Tablaturas para guitarra. Tabs and Chords for guitar. Aviso Legal - Contacto
El uso de este sitio está sujeto a la aceptación de los términos y condiciones (36 usuarios online)