tablaturas, partituras y acordes para guitarra
Busca por banda/artista:
 
y/o título de la canción:
A B C D E F G H I J K L M N O P Q R S T U V W X Y Z 0 1 2 3 4 5 6 7 8 9 / Top 100 tabs
Categorías
Usuarios
usuario:
Darse de alta
password:
Artistas más visitados
Publicidad
TOP acordes y tablaturas de Nightmare


Aluminia
de Nightmare
Puntúa este acorde/tab:      
(0.2/5)
Reportar este acorde/tab
  Añadir a tus favoritos
  Imprimir
G||-------------------|---------------------|-------------------|
D||-------------------|---------------------|-------------------|
A||--1----------------|--L--------1---------|-------------------|
E||-------------------|----------------4----|--2----------------|

---------------------|----------------------------------|
---------------------|----------------------------------|
---------------------|------1-------1-------1-------1---|
--L--------2----1----|--0-0---0-L-0---0-L-0---0-L-0---0-|

----------------------------------|------------------------------|
----------------------------------|------------------------------|
------3-------3-------3-------3---|--1-1-L-1-1--1-1-L-1-1--1--1--|
--1-1---1-L-1---1-L-1---1-L-1---1-|------------------------------|
 
--------------------|--------------------------------|
--------------------|--------------------------------|
--1-----------------|------------0-1-L-1---3-3-3---3-|
-----------4--------|--0--1-0-4--0-------1-------1---|

--------------------------------|--------------------------------|
--------------------------------|--------------------------------|
-----0------0-1-L-1-3-3-4-4-----|------------0-1-L-1---1-1-1---1-|
--2--0-2-2--0---------------4-4-|--2--1-2-4--0-------1-------1---|

--------------------------------|--------------------------------|
--------------------------------|--------------------------------|
------------0-1-L-1-3-3-4-4-----|-----3------0-1-L-1---1-1-1---1-|
--3--0-2-2--0---------------4-4-|--2--1-2-4--0-------1-------1---|

--------------------------------|--------------------------------|
--------------------------------|--------------------------------|
--------------1-L-1-3-3-4-4-----|--------------1-L-1---1-1-1---1-|
--3--0-2-2--0---------------4-4-|--2--1-2-4--0-------1-------1---|

-------------------|------------------------------|
-------------------|-------------------3-3-L--1---|
-------------------|-----3------3-----------------|
--2----------------|--1----1-L----1-L-----------4-|
   
------------------------------|------------------------------|
-------------------1------1---|-------------------8------8---|
-----4------4-----------------|-----7------7-----------------|
--2----2-L----4-L----4-L----4-|--5----5-L----6-L----6-L----6-|

------------------------------|------------------------------|
-------------------1------1---|------------------------------|
-----4------4-----------------|-----8------8------8------6---|
--2----2-L----4-L----4-L----4-|--6----6-L----6-L----4-L----4-|

------------------------------|------------------------------|
-------------------1------1---|-------------------8------8---|
-----4------4-----------------|-----7------7-----------------|
--2----2-L----4-L----4-L----4-|--5----5-L----6-L----6-L----6-|

------------------------------|---------------------------------|
-------------------1------1---|---------------------------------|
-----4------4-----------------|--1-1-1-3-L-3-3-4-L-4-4----------|
--2----2-L----4-L----4-L----4-|------------------------2-L-2-2--|

  W                  
-------------------||
-------------------||
-------------------||
-------------------||		   
AcordesyTabs.com © 2008 Acordes y Tablaturas para guitarra. Tabs and Chords for guitar. Aviso Legal - Contacto
El uso de este sitio está sujeto a la aceptación de los términos y condiciones (27 usuarios online)