tablaturas, partituras y acordes para guitarra
Busca por banda/artista:
 
y/o título de la canción:
A B C D E F G H I J K L M N O P Q R S T U V W X Y Z 0 1 2 3 4 5 6 7 8 9 / Top 100 tabs
Categorías
Usuarios
usuario:
Darse de alta
password:
Artistas más visitados
Publicidad
TOP acordes y tablaturas de Nightmare


Aluminia
de Nightmare
Puntúa este acorde/tab:      
(0.8/5)
Reportar este acorde/tab
  Añadir a tus favoritos
  Imprimir
guitarra
     W                   H        Q    Q       W                 
E||-------------------|---------------------|-------------------|
B||-------------------|---------------------|-------------------|
G||--3----------------|--L--------1---------|-------------------|
D||-------------------|----------------4----|--4----------------|
A||--1----------------|--L--------1---------|-------------------|
E||-------------------|----------------4----|--2----------------|


  H        Q    Q       S S S S S S S S S S S S S S S S  
---------------------|----------------------------------|
---------------------|----------------------------------|
---------------------|----------------------------------|
--L--------4----3----|------1-------1-------1-------1---|
---------------------|------1-------1-------1-------1---|
--L--------2----1----|--0-0---0-L-0---0-L-0---0-L-0---0-|


  S S S S S S S S S S S S S S S S    S S S S E  S S S S E  E  E   
----------------------------------|------------------------------|
----------------------------------|------------------------------|
----------------------------------|------------------------------|
------3-------3-------3-------3---|--3-3---3-3--3-3-3-3----3--3--|
------3-------3-------3-------3---|--1-1-L-1-1--1-1-L-1-1--1--1--|
--1-1---1-L-1---1-L-1---1-L-1---1-|------------------------------|


  H        H           E  S S E  S S S S S S S S S S  
--------------------|--------------------------------|
--------------------|--------------------------------|
--------------------|--------------------------------|
--3-----------------|--------------------------------|
--1--------6--------|------------0-1-L-1-1-3-3-3-1-3-|
-----------4--------|--0--1-0-4--0-------1-------1---|


  E  S S E  S S S S S S S S S S    E  S S E  S S S S S S S S S S  
--------------------------------|--------------------------------|
--------------------------------|--------------------------------|
--------------3-L-3-5-5-6-6-----|--------------------------------|
--------------------------------|--------------------------------|
-----0------0-1-L-1-3-3-4-4-6-6-|-----3------0-1-L-1-1-1-1-1-1-1-|
--2--0-2-2--0---------------4-4-|--2--1-2-4--0-------1-------1---|


  E  S S E  S S S S S S S S S S    E  S S E  S S S S S S S S S S  
--------------------------------|--------------------------------|
--------------------------------|--------------------------------|
--------------3-L-3-5-5-6-6-----|--------------------------------|
--------------------------------|--------------3-L---------------|
-----0------0-1-L-1-3-3-4-4-6-6-|-----3------0-1-L-1-1-1-1-1-1-1-|
--3--0-2-2--0---------------4-4-|--2--1-2-4--0-------1-------1---|


  E  S S E  S S S S S S S S S S    E  S S E  S S S S S S S S S S  
--------------------------------|--------------------------------|
--------------------------------|--------------------------------|
--------------3-L-3-5-5-6-6-----|--------------------------------|
--------------------------------|--------------------------------|
-----0------0-1-L-1-3-3-4-4-6-6-|-----3------0-1-L-1-1-1-1-1-1-1-|
--3--0-2-2--0---------------4-4-|--2--1-2-4--0-------1-------1---|


  W                   S S S S S S S S  S S  S  S  S  S  S  S  
-------------------|-----------------------------------------|
-------------------|-----------------------------------------|
-------------------|--------2-5---2-5-10-5-10-14-10-14-17-22-|
--4----------------|------3-----3----------------------------|
-------------------|----3------------------------------------|
--2----------------|--1--------------------------------------|


  S S S S S S S S S S S S S S S S    S S S S S S S S S S S S S S S S  
----------------------------------|----------------------------------|
----------------------------------|----------------------------------|
----------3-----------1---5---1---|------2---5---2-------3---6---3---|
------4-------4-----1---1---1---1-|----3---3---3---3---3---3---3---3-|
----4---4---4---4-----------------|------------------1---------------|
--2---------------4---------------|--5-------------------------------|


  S S S S S S S S S S S S S S S S    S S S S S S S S S S S S S S S S  
----------------------------------|----------------------------------|
----------------------------------|----------------------------------|
----------3-----------1---5---1---|------3---6---3-------3-------1---|
------4-------4-----1---1---1---1-|----3---3---3---1---3---3---1---1-|
----4---4---4---4-----------------|--1---------------1---------------|
--2---------------4---------------|--------------------------4-------|


  S S S S S S S S S S S S S S S S    S S S S S S S S S S S S S S S S  
----------------------------------|----------------------------------|
----------------------------------|----------------------------------|
----------3-----------1---5---1---|------2---5---2-------3---6---3---|
------4-------4-----1---1---1---1-|----3---3---3---3---3---3---3---3-|
----4---4---4---4-----------------|------------------1---------------|
--2---------------4---------------|--5-------------------------------|


  E  S S E  S S E  S S E  S S    S S S S S S S S S S S S S S E   
------------------------------|---------------------------------|
------------------------------|---------------------------------|
------------------------------|--3-3-3-5---5-5-6---6-6----------|
-----4------4------6------6---|------------------------4---4-4--|
-----4------4------6------6---|--1-1-1-3-L-3-3-4-L-4-4----------|
--2----2-L----4-L----4-L----4-|------------------------2-L-2-2--|


  W                  
-------------------||
-------------------||
-------------------||
-------------------||
-------------------||
-------------------||		   
AcordesyTabs.com © 2008 Acordes y Tablaturas para guitarra. Tabs and Chords for guitar. Aviso Legal - Contacto
El uso de este sitio está sujeto a la aceptación de los términos y condiciones (56 usuarios online)