tablaturas, partituras y acordes para guitarra
Busca por banda/artista:
 
y/o título de la canción:
A B C D E F G H I J K L M N O P Q R S T U V W X Y Z 0 1 2 3 4 5 6 7 8 9 / Top 100 tabs
Categorías
Usuarios
usuario:
Darse de alta
password:
Artistas más visitados
Publicidad
TOP acordes y tablaturas de Kiss
:: Beth - Kiss


Estás en: Inicio > Letra K > Acordes y tablaturas de Kiss > Fits like a glove
Fits like a glove
de Kiss
Puntúa este acorde/tab:      
(0.4/5)
Reportar este acorde/tab
  Añadir a tus favoritos
  Imprimir
Rhythm Fig. 1a
E|-----------------------------------------------------|
B|-----------------------------------------------------|
G|-------2--2--2--2--2--2---------2--2--2--2-----------|
D|-------2--2--2--2--2--2---------2--2--2--2-----------|
A|-------0--0--0--0--0--0---------0--0--0--0-----------|
E|--3b^--------------------3b^----------------0--0-----|

E|-----------------------------------------------------|
B|-----------------------------------------------------|
G|-------2--2--2--2--2--2--2--5-4--0--2----2--2-------|
D|-------2--2--2--2--2--2--2--5-4--0--2----2--2-------|
A|-------0--0--0--0--0--0--0----------------0--0-------|
E|--3b^------------------------------------------------|

Rhythm Fig. 1b

E|-----------------------------------------------------|
B|-----------------------------------------------------|
G|-------2--2--2--2--2--2---------2--2--2--2-----------|
D|-------2--2--2--2--2--2---------2--2--2--2-----------|
A|-------0--0--0--0--0--0---------0--0--0--0-----------|
E|--3b^--------------------3b^----------------0--0-----|

E|-----------------------------------------------------|
B|-----------------------------------------------------|
G|-------2--2--2--2------------------------------------|
D|-------2--2--2--2------------------------------------|
A|-------0--0--0--0------------------------------------|
E|--3b^--------------------------------0--0------------|

Rhythm Fig. 1c

E|-----------------------------------------------------|
B|-----------------------------------------------------|
G|-------2--2--2--2--2--2---------2--2--2--2-----------|
D|-------2--2--2--2--2--2---------2--2--2--2-----------|
A|-------0--0--0--0--0--0---------0--0--0--0-----------|
E|--3b^--------------------3b^----------------0--0-----|

E|-----------------------------------------------------|
B|-----------------------------------------------------|
G|-------2--2--2--2------------------------------------|
D|-------2--2--2--2------------------------------------|
A|-------0--0--0--0------------------------------------|
E|--3b^------------------------------------------------|

Rhythm Fig. 2

E|--3-------------------3------------------------------|
B|--3-------------------3------------------------------|
G|--0----2--2--2--2--2--0-------2--2--2--2--2----------|
D|--0----0--0--0--0--0--0-------0--0--0--0--0----------|
A|--x-------------------x------------------------------|
E|--3-------------------3------------------------------|

E|--3-------3---------3--------------------------------|
B|--3-------3---------3--------------------------------|
G|--0----x--0------x--0----2--2--2--2--2---------------|
D|--0----x--0------x--0----0--0--0--0--0---------------|
A|--x-------x---------x--------------------------------|
E|--3-------3---------3--------------------------------|

E|--3-------------------3------------------------------|
B|--3-------------------3------------------------------|
G|--0----2--2--2--2--2--0----2--2--2--2--2-------------|
D|--0----0--0--0--0--0--0----0--0--0--0--0-------------|
A|--x-------------------x------------------------------|
E|--3-------------------3------------------------------|

E|--3-------3------------------------------------------|
B|--3-------3---------3--------------------------------|
G|--0----x--0------x--2--------------------------------|
D|--0----x--0------x--0--------------------------------|
A|--x-------x------------------------------------------|
E|--3-------3------------------------------------------|

Rhythm Fig. 3a (P.M. on 6th)

E|-----------------------------------------------------|
B|-----------------------------------------------------|
G|--10~-------------------10~--------------------------|
D|--9~--------------------9~---------------------------|
A|-----------------------------------------------------|
E|--------0--0--0--0--0-----------0--0--0--0--0--------|

E|-----------------------------------------------------|
B|-----------------------------------------------------|
G|--10~------10~--------10~----------------------------|
D|--9~-------9~---------9~-----------------------------|
A|-----------------------------------------------------|
E|--------0----------0------------0--0--0--0--0--------|

Rhythm Fig. 3b (P.M. on 6th)

E|-----------------------------------------------------|
B|-----------------------------------------------------|
G|--10~------------------10~---------------------------|
D|--9~-------------------9~----------------------------|
A|-----------------------------------------------------|
E|--------0--0--0--0--0----------0--0--0--0--0---------|

E|-----------------------------------------------------|
B|-----------------------------------------------------|
G|--10~------10~--------7------------------------------|
D|--9~-------9~---------7------------------------------|
A|----------------------5------------------------------|
E|--------0----------0---------------------------------|

Rhythm Fig. 4

E|-----------------------------------------------------|
B|-----------------------------------------------------|
G|-----------------------------------(b9)(b9)------(b9)------|
D|-------------2---------------------(b9)(b9)------(b9)------|
A|-----------------------------------7-7-------7-------|
E|----0--3--4-----3--2--0------------------------------|
                                   
Rhythm Fig. 5

E|-----------------------------------------------------|
B|-----------------------------------------------------|
G|---------------------------------------------2-2-----|
D|-------------2-------------------------------2-2-----|
A|---------------------------------------------0-0-----|
E|----0--3--4-----3--2--0------------------------------|

Solo

E|--20b~---------22b~--------17p15-20p15-17p15---------|
B|---------------------------------------------17p15---|
G|-----------------------------------------------------|
D|-----------------------------------------------------|
A|-----------------------------------------------------|
E|-----------------------------------------------------|

E|-----------------------------------------------------|
B|--17p15-20p15-17p15----15----------------------------|
G|--------------------17----17-1(b9)14-17----------------|
D|--------------------------------------17-1(b9)---17----|
A|--------------------------------------------1(b9)------|
E|-----------------------------------------------------|

E|-----------------------------------------------------|
B|-----------------------------------------------------|
G|--19b-(/)19b-(/)19b-(/)19b-(/)19b-r19p17-(/)1(b9)(/)1(b9)|
D|-----------------------------------------------------|
A|-----------------------------------------------------|
E|-----------------------------------------------------|

E|-----------------------------------------------------|
B|-----------------------------------------------------|
G|--(/)17----------------------------17~--(/)17h19p17--|
D|--------(/)17--17-(/)(/)(/)-----------------------|
A|-----------------------------------------------------|
E|-----------------------------------------------------|
                                          < - - 8x - ->

E|-----------------------------------------------------|
B|-----------------------------------------------------|
G|--17-19b~--------------------------------------------|
D|---------------------------------------5---------5---|
A|---------------3p0-------0-5p3---3h5/7---7p6p5-7-----|
E|-------------------3p0-3-------5---------------------|

E|-----------------------------------------------------|
B|------------------------5-8p5----------15b-15-15b~---|
G|------------5-7p5---5h7-------7-5-------------------|
D|--7p5---5h7-------7----------------------------------|
A|------7----------------------------------------------|
E|-----------------------------------------------------|

Riff 1

E|--x*--------x*--------x*--------x*-------------------|
B|----x*---x*---x*---x*---x*---x*---x*-----------------|
G|------x*--------x*---------x*-------x*---------------|
D|-----------------------------------------------------|
A|-----------------------------------------------------|
E|-----------------------------------------------------|
   Sweep pick while sliding finger down string

Riff 2

E|-----------------------------------------------------|
B|-----------------------------------------------------|
G|--/7~-----7p6-7p6-7p6-7p6~---------------------------|
D|-----------------------------------------------------|
A|-----------------------------------------------------|
E|-----------------------------------------------------|

Riff 3

E|--/22b~----------------------------------------------|
B|-----------------------------------------------------|
G|-----------------------------------------------------|
D|-----------------------------------------------------|
A|-----------------------------------------------------|
E|-----------------------------------------------------|

Riff 4

E|-----------------------------------------------------|
B|-----------------------------------------------------|
G|--10()----------------------------------------------|
D|--10()----------------------------------------------|
A|-----------------------------------------------------|
E|-----------------------------------------------------|		   
AcordesyTabs.com © 2008 Acordes y Tablaturas para guitarra. Tabs and Chords for guitar. Aviso Legal - Contacto
El uso de este sitio está sujeto a la aceptación de los términos y condiciones (27 usuarios online)