tablaturas, partituras y acordes para guitarra
Busca por banda/artista:
 
y/o título de la canción:
A B C D E F G H I J K L M N O P Q R S T U V W X Y Z 0 1 2 3 4 5 6 7 8 9 / Top 100 tabs
Categorías
Usuarios
usuario:
Darse de alta
password:
Artistas más visitados
Publicidad
TOP acordes y tablaturas de Kiss
:: Beth - Kiss


I
de Kiss
Puntúa este acorde/tab:      
(1/5)
Reportar este acorde/tab
  Añadir a tus favoritos
  Imprimir
intro/chorus
E|---------------------------------------------------------------------------|
B|---------------------------------------------------------------------------|
G|---------------------------(b9)(b9)--7---(b9)---7---(b9)---------------(b9)--7---(b9)--|
D|---------------------------(b9)(b9)--7---(b9)---7---(b9)-----2-2-------(b9)--7---(b9)--|
A|---------------------------7-7---5---7----5---7----x-2-2-------7---5---7---|
E|---0--0--0--0--0--0--0--0--------------------------x-0-0-------------------|

E|---------------------------------------------------------------------------|
B|---------------------------------------------------------------------------|
G|-7---(b9)------------------4--5-5----4--2-2----5--7-7----5--4-4-----7---(b9)(b9)-|
D|-7---(b9)-----2-2----------4--5-5----4--2-2----5--7-7----5--4-4-----7---(b9)(b9)-|
A|-5---7----x-2-2----------2--3-3----2--0-0----3--5-5----3--2-2-----5---7-7--|
E|----------x-0-0--------x---------------------------------------------------|
         
      repeat          
E|-------------------|
B|-------------------|
G|-7---(b9)---7---(b9)---|
D|-7---(b9)---7---(b9)---|
A|-5---7----5---7----|
E|-------------------|

    verses      "I was so frightened..."     "almost ran away"      "I didn't
E|---------------------------------------------------------------------------|
B|----------------------------------------5~---------------------------------|
G|----------2~----------------------------5~---------------------12~---------|
D|----------2~----------------------------5~---------------------12~---------|
A|----------0~---------------------------------------------------------------|
E|---------------------------------------------------------------------------|

   know"    "that I could do"     "anything"     "I needed to"
E|--------------------------------------------------------------------|
B|--------------------------------------------------------------------|
G|-------11~------------------12~------------11~-----------------2~---|
D|-------12~------------------12~------------12~-----------------2~---|
A|---------------------------------------------------------------0~---|
E|--------------------------------------------------------------------|
                                                               repeat

   chorus  "I      believe in me"      "I      believe in something        mo
E|---------------------------------------------------------------------------|
B|---------------------------------------------------------------------------|
G|----------(b9)(b9)-7--(b9)-7--(b9)------------(b9)(b9)-7--(b9)-7--(b9)----------------4--5-|
D|----------(b9)(b9)-7--(b9)-7--(b9)--2--2------(b9)(b9)-7--(b9)-5--(b9)--2--2----------4--5-|
A|----------7-7--5--7--5--7---2--2------7-7--5--7--5--7---2--2----------2--3-|
E|----------------------------0--0------------------------0--0--------x------|

  re  than you  can   understand     I believe in me"
E|---------------------------------------------------------------------------|
B|---------------------------------------------------------------------------|
G|5---4--2-2----5--7-7----5--4-4-----7---(b9)(b9)-7--(b9)-7--(b9)--------------------|
D|5---4--2-2----5--7-7----5--2-2-----7---(b9)7--7--(b9)-7--(b9)--------6-----7-7---|
A|3---2--0-0----3--5-5----3--2-2-----5---7-7--5--7--5--7---------6-----7-7---|
E|---------------------------------------------------------------4-----5-5---|

                         repeat 4x
E|-----------------------------------------=---------------------------------|
B|-----------------------------------------=---------------------------------|
G|----4-----5-5----------------------------=---4-----5-5------7-7------(b9)----|
D|----4-----5-5-------5-5-------6----7-7---=---4-----5-5------7-7------(b9)----|
A|----2-----3-3-------5-5-------6----7-7---=---2-----3-3------5-5------7--7-7|
E|--------------------3-3-------4----5-5---=------------------------------0-0|

                                         "I don't need no money....etc...."
E|---------------------------------------------------------------------------|
B|---------------------------------------------------------------------------|
G|---------------------------------------------------------------------------|
D|---------------------------------------------------------------------------|
A|---7-7---7-7---7-7---7-7---7-7---7-7---------------------------------------|
E|---0-0---0-0---0-0---0-0---0-0---0-0---------------------------------------|
                                                  lyrics and bass only until.

              "I dont need to get wasted.."     "It only holds me down"     "
E|---------------------------------------------------------------------------|
B|-----------------------------------------5~--------------------------------|
G|------------2~---------------------------5~----------------------------12~-|
D|------------2~---------------------------5~----------------------------12~-|
A|--------3b--0~-------------------------------------------------------------|
E|---------------------------------------------------------------------------|
  ........

  I just need   a will of my own"    "And the balls"    "to stand alone"
E|----------------------------------------------------------------------|
B|----------------------------------------------------------------------|
G|------------11~-----------------12~---------------11~-----------------|
D|------------12~-----------------12~---------------12~-----------------|
A|----------------------------------------------------------------------|
E|----------------------------------------------------------------------|
                                                             to chorus		   
AcordesyTabs.com © 2008 Acordes y Tablaturas para guitarra. Tabs and Chords for guitar. Aviso Legal - Contacto
El uso de este sitio está sujeto a la aceptación de los términos y condiciones (17 usuarios online)