tablaturas, partituras y acordes para guitarra
Busca por banda/artista:
 
y/o título de la canción:
A B C D E F G H I J K L M N O P Q R S T U V W X Y Z 0 1 2 3 4 5 6 7 8 9 / Top 100 tabs
Categorías
Usuarios
usuario:
Darse de alta
password:
Artistas más visitados
Publicidad
TOP acordes y tablaturas de Kiss
:: Beth - Kiss


Estás en: Inicio > Letra K > Acordes y tablaturas de Kiss > Under the rose
Under the rose
de Kiss
Puntúa este acorde/tab:      
(0.7/5)
Reportar este acorde/tab
  Añadir a tus favoritos
  Imprimir
Tuned down 1/2-step

Key:
/    = slide up
    = slide down
b    = bend (whole step)
b^   = bend (1/2 step)
b^^  = bend (1 1/2 steps)
pb   = pre-bend
r    = release-bend
t    = tap with righthand finger
h    = hammer-on
p    = pull-off
~    = Vibrato
*    = Natural Harmonic
#(#) = Trill
**   = Artificial Harmonic
x    = Dead notes (no pitch)
P.M. = Palm mute (- -> underneath indicates which notes)
()  = Dive war
(/)  = Release war
Tp   = Tap wplectrum

Rhythm Fig. 1a
                                                                     
Eb|-------------------------------------------------------------|
Bb|-------------------------------------------------------------|
Gb|--5------------------------5--5-------------------------5--5-|
Db|--5------------------------5--5-------------------------5--5-|
Ab|-----0-0-0-0-0-0-0-0-0-0-0--------0-0-0-0-0-0-0-0-0-0-0------|
Eb|-------------------------------------------------------------|
        P.M. - - - - - - - - >        P.M. - - - - - - - - >
                                      
Eb|-------------------------------------------------------------|
Bb|-------------------------------------------------------------|
Gb|--------------------------5--5-------------------------------|
Db|--------------------------5--5-------------------------------|
Ab|----0-0-0-0-0-0-0-0-0-0-0--------0-0-0-0-0-0-0-0-0-0-0-0-0-0-|
Eb|-------------------------------------------------------------|
        P.M. - - - - - - - - >      P.M. - - - - - - - - - - - >

Rhythm Fig. 1b
                                                                 
Eb|-------------------------------------------------------------|
Bb|-------------------------------------------------------------|
Gb|--5------------------------5--5-------------------------5--5-|
Db|--5------------------------5--5-------------------------5--5-|
Ab|-----0-0-0-0-0-0-0-0-0-0-0--------0-0-0-0-0-0-0-0-0-0-0------|
Eb|-------------------------------------------------------------|
        P.M. - - - - - - - - >        P.M. - - - - - - - - >
                                              
Eb|-------------------------------------------------------------|
Bb|-------------------------------------------------------------|
Gb|--------------------------------10---/12--------------------|
Db|--------------------------------10---/12--------------------|
Ab|----0-0-0-0-0-0-0-0-0-0-0-0-0-0-8----/10--------------------|
Eb|-------------------------------------------------------------|

Rhythm Fig. 2
                                                                 
Eb|-------------------------------------------------------------|
Bb|-------------------------------------------------------------|
Gb|--2----------0--2--0--5~---------0--2--0--5~-----------------|
Db|--2----------0--2--0--5~---------0--2--0--5~-----------------|
Ab|--0----------------------------------------------------------|
Eb|-------------------------------------------------------------|
                                                              
Eb|-------------------------------------------------------------|
Bb|-------------------------------------------------------------|
Gb|--0--5--0--2-------------------------------------------------|
Db|--0--5--0--2-------------------------------------------------|
Ab|-----------0-------------------------------------------------|
Eb|-------------------------------------------------------------|

Rhythm Fig. 3a
                                                  
Eb|-------------------------------------------------------------|
Bb|----------------------------3-------3-------3----------------|
Gb|----------------------------2---2---2---2---2----------------|
Db|-----2------2p0---0---2-----0---2---0---2---0----------------|
Ab|----------------0---------------0-------0--------------------|
Eb|--0----------------------------------------------------------|
    Let ring >

Rhythm Fig. 3b
                                                  
Eb|-------------------------------------------------------------|
Bb|----------------------------3---2---3---2---3----------------|
Gb|----------------------------2---2---2---2---2----------------|
Db|-----2------2p0---0---2-----4---2---4---2---4----------------|
Ab|----------------0-----------0---0---0---0---0----------------|
Eb|--0----------------------------------------------------------|
    Let ring >

Rhythm Fig. 3c
                                                                     
Eb|-------------------------------------------------------------|
Bb|-------------------------------------------------------------|
Gb|---------------------------5---5---7-------------------------|
Db|-----2------2p0---0---2----5---5---7-------------------------|
Ab|----------------0----------3---3---5-------------------------|
Eb|--0-------------------------------------17------------------|
    Let ring >

Rhythm Fig. 4
                                                 
Eb|-------------------------------------------------------------|
Bb|-------------------------------------------------------------|
Gb|-------------------------------------------------------------|
Db|-------2---------------2p0----0--2p0---0---2p0---------------|
Ab|----------------------------0--------0-----------------------|
Eb|--0----------------------------------------------------------|
    Let ring - >

Rhythm Fig. 5
                                                            
Eb|-------------------------------------------------------------|
Bb|-------------------------------------------------------------|
Gb|-------------------------------------------------------------|
Db|-----2p0--4p0--5p0-4p0-2p0--------2p0--4p0--5p0-4p0-2~-------|
Ab|--0------------------------3---0-----------------------------|
Eb|-------------------------------------------------------------|

Rhythm Fig. 6a
                                                              
Eb|-------------------------------------------------------------|
Bb|----3-------3-------3----------------------------------------|
Gb|----2---2---2---2---2----------------------------------------|
Db|----0---2---0---2---0----------------------------------------|
Ab|--------0-------0--------------------------------------------|
Eb|-------------------------------------------------------------|

Rhythm Fig. 6b
                                                              
Eb|-------------------------------------------------------------|
Bb|----3---2---3---2---3----------------------------------------|
Gb|----2---2---2---2---2----------------------------------------|
Db|----4---2---4---2---4----------------------------------------|
Ab|----0---0---0---0---0----------------------------------------|
Eb|-------------------------------------------------------------|

Rhythm Fig. 7
                                         
Eb|-------------------------------------------------------------|
Bb|-------------------------------------------------------------|
Gb|-------------------------------------------------------------|
Db|--2----------------------------------------2-2---------------|
Ab|--2----------------------------------------2-2---------------|
Eb|--0----------------------------------------0-0---------------|

Intro solo

Eb|-------------------------------------------------------------|
Bb|-------------------------------------------------------------|
Gb|--4*----()----(/)---()-------------------------------------|
Db|-------------------------------------------------------------|
Ab|----------------------------------x/-------------------------|
Eb|----------------------------------x/-------------------------|

Eb|-------------------------------------------------------------|
Bb|---------------------13b--r13-12h13p12-----------------------|
Gb|--12b----r12-12b~----------------------14p12p11--------------|
Db|------------------------------------------------14p12p10-9~--|
Ab|-------------------------------------------------------------|
Eb|-------------------------------------------------------------|

Eb|---------------------12b--r12-10h12p10-----------------------|
Bb|--15b----r15-15b~----------------------13p12p10--------------|
Gb|------------------------------------------------12p11p(b9)-7~--|
Db|---------------------------------------------------------9~--|
Ab|-------------------------------------------------------------|
Eb|-------------------------------------------------------------|

Eb|----------------------------------8h10h12--8h10h12--10h12h14-|
Bb|-----------------8h10h12-8h10h12-----------------------------|
Gb|--7h9h11-7h9h11----------------------------------------------|
Db|-------------------------------------------------------------|
Ab|-------------------------------------------------------------|
Eb|-------------------------------------------------------------|

Eb|-----------------------------------12h14h15-12h14h15-14h15h17|
Bb|------------------12h13h15-12h13h15--------------------------|
Gb|-11h12h14-11h12h14-------------------------------------------|
Db|-------------------------------------------------------------|
Ab|-------------------------------------------------------------|
Eb|-------------------------------------------------------------|

Eb|--10h12h14-12h14h15-12h14h15-12--15--17~---------------------|
Bb|-------------------------------------------------------------|
Gb|-------------------------------------------------------------|
Db|-------------------------------------------------------------|
Ab|-------------------------------------------------------------|
Eb|-------------------------------------------------------------|

Eb|--14h15h17-15h17h1(b9)15h17h1(b9)15--1(b9)-20~---------------------|
Bb|-------------------------------------------------------------|
Gb|-------------------------------------------------------------|
Db|-------------------------------------------------------------|
Ab|-------------------------------------------------------------|
Eb|-------------------------------------------------------------|

Riff 1

Eb|-------------------------------------------------------------|
Bb|-------------------------------------------------------------|
Gb|--12*-(/)-()-----------------------------------------------|
Db|--12*-(/)-()-----------------------------------------------|
Ab|-------------------------------------------------------------|
Eb|-------------------------------------------------------------|

Riff 2

Eb|-------------------------------------------------------------|
Bb|--15p13p12-13p12----12---------------------------------------|
Gb|-----------------14----14p12-14p12p11-14p12p11-12p11----11---|
Db|-----------------------------------------------------14------|
Ab|-------------------------------------------------------------|
Eb|-------------------------------------------------------------|

Eb|-------------------------------------------------------------|
Bb|-------------------------------------------------------------|
Gb|-------------------------------------------------------------|
Db|--14p12p10---------------------------------------------------|
Ab|-----------14p12p10~-----------------------------------------|
Eb|------------------------12-()-------------------------------|

Solo

Eb|-------------------------------------------------------------|
Bb|---------------------------5*()------5-/8-t10(8)-h8-t10p8-|
Gb|--4*()------------------------------------------------------|
Db|-------------------------------------------------------------|
Ab|-------------------------------------------------------------|
Eb|------------(/)5~--------------------------------------------|

Eb|--------------------------------------------/15~------17--15-|
Bb|--t10p8-t10/-5h8p5-------------------------------------------|
Gb|-------------------7b-r7p5(/)-(/)7p5~-----------------------|
Db|-------------------------------------------------------------|
Ab|-------------------------------------------------------------|
Eb|-------------------------------------------------------------|
  |                                     w/ bar                  | 

Eb|--------------------------------------------/19~------20--1(b9)|
Bb|-------------------------------------------------------------|
Gb|-------------------------------------------------------------|
Db|-------------------------------------------------------------|
Ab|-------------------------------------------------------------|
Eb|-------------------------------------------------------------|

Eb|--17--15--17--15~----------------------------0--/17-15----0--|
Bb|-------------------------------------------------------17----|
Gb|-----------------------14(12)-----(/)12()-------------------|
Db|-------------------------------------------------------------|
Ab|-------------------------------------------------------------|
Eb|-------------------------------------------------------------|
  |                       Lower bar                             |

Eb|--20--1(b9)-20--19~--------------------------------------------|
Bb|-------------------------------------------------------------|
Gb|-------------------------------------------------------------|
Db|-------------------------------------------------------------|
Ab|-------------------------------------------------------------|
Eb|-------------------------------------------------------------|

Eb|-15-12-------------------------------------------------------|
Bb|-------15-13-17-15-13----15-13----------13-------------------|
Gb|----------------------14-------14-12-14----12-14-12----------|
Db|----------------------------------------------------14-12-10-|
Ab|-------------------------------------------------------------|
Eb|-------------------------------------------------------------|

Eb|------------------------------x-x-17~----x-x-19~----x-x-20---|
Bb|-------------------------------------------------------------|
Gb|-------------------------------------------------------------|
Db|-----12p10----10---------------------------------------------|
Ab|--12-------12----12-10~--------------------------------------|
Eb|-------------------------------------------------------------|
  |                                                                                                                
Eb|-------------------------------------------------------------|
Bb|------------------------------x-x-13~----x-x-15~----x-x-17---|
Gb|-------------------------------------------------------------|
Db|-------------------------------------------------------------|
Ab|-------------------------------------------------------------|
Eb|-------------------------------------------------------------

Eb|--x-x-22--x-x-22b~-------------------------------------------|
Bb|-------------------------15p13----13-------------------------|
Gb|-------------------------------14----14-12-14p12----12----12-|
Db|-------------------------------------------------14----14----|
Ab|-------------------------------------------------------------|
Eb|-------------------------------------------------------------|
  |                                                             |                                                   
Eb|-------------------------------------------------------------|
Bb|--x-x-20--x-x-20b~-------------------------------------------|
Gb|-------------------------------------------------------------|
Db|-------------------------------------------------------------|
Ab|-------------------------------------------------------------|
Eb|-------------------------------------------------------------|

Eb|-----------------------------12----12-15-15b---15---15b---15-|
Bb|-----------13----13-15p13-15----15---------------------------|
Gb|--14p12-14----14---------------------------------------------|
Db|-------------------------------------------------------------|
Ab|-------------------------------------------------------------|
Eb|-------------------------------------------------------------|

Eb|-----------------------------------------19b^--1(b9)--19b^--1(b9)|
Bb|-------------------------------------------------------------|
Gb|-------------------------------------------------------------|
Db|-------------------------------------------------------------|
Ab|-------------------------------------------------------------|
Eb|-------------------------------------------------------------|

Eb|--15b~-------------------------------------------------------|
Bb|-------------------------------------------------------------|
Gb|-------------------------------------------------------------|
Db|-------------------------------------------------------------|
Ab|--------------0()-------------------------------------------|
Eb|-------------------------------------------------------------|
  |                                                             |
Eb|--19b^~------------------------------------------------------|
Bb|-------------------------------------------------------------|
Gb|-------------------------------------------------------------|
Db|-------------------------------------------------------------|
Ab|-------------------------------------------------------------|
Eb|-------------------------------------------------------------|

Riff 3

Eb|-----12-15p12----12-15p1----12-15-12h15hp12----15p12----12---|
Bb|--15----------15---------15-----------------15-------15------|
Gb|-------------------------------------------------------------|
Db|-------------------------------------------------------------|
Ab|-------------------------------------------------------------|
Eb|-------------------------------------------------------------|

Eb|--15--15b~--------------------------------------------------|
Bb|-------------------------------------------------------------|
Gb|-------------------------------------------------------------|
Db|--------------------------------------------------t14-10h12--|
Ab|----------------------------------------t15-10h12------------|
Eb|--------------------------------t15-8h10---------------------|

Eb|-------------------t15-8h10-t15p8-t15p10~--------------------|
Bb|----------t13-8h10-------------------------------------------|
Gb|--t14-7h(b9)---------------------------------------------------|
Db|-------------------------------------------------------------|
Ab|-------------------------------------------------------------|
Eb|-------------------------------------------------------------|

Eb|------17h20p17----17-20p17----20b-r20p17-20b-r20p17-20b~-----|
Bb|--/20----------20----------20--------------------------------|
Gb|-------------------------------------------------------------|
Db|-------------------------------------------------------------|
Ab|-------------------------------------------------------------|
Eb|-------------------------------------------------------------|

Eb|---------8h10p8h8p7----7-----------------------------------|
Bb|----------------------10---10-8h10p8p6h8p6---6---------------|
Gb|-------------------------------------------(b9)--(b9)7h9p7p5h7p5-|
Db|-------------------------------------------------------------|
Ab|-------------------------------------------------------------|
Eb|-------------------------------------------------------------|

Eb|-------------------------------------------------------------|
Bb|-------------------------------------------------------------|
Gb|----5--------------------------------------------7*()-------|
Db|--(b9)--(b9)7h9p7p5h7h5------------------------------------------|
Ab|--------------------7-(/)(/)()----------------------------|
Eb|-------------------------------------------------------------|

Riff 4
                                                        
Eb|--10p8p7h8p7----8--------------------------------------------|
Bb|-------------10---10-8h10p8p7-10p8p7h8p7---7-----------------|
Gb|-----------------------------------------(b9)--(b9)7h9p7p5-------|
Db|-------------------------------------------------------------|
Ab|-------------------------------------------------------------|
Eb|-------------------------------------------------------------|
                                     
Eb|-------------------------------------------------------------|
Bb|-------------------------------------------------------------|
Gb|--9p7p5h7p5---5----------------------------------------------|
Db|------------(b9)--(b9)7h9p7p5------------------------------------|
Ab|--------------------------7-7--------------------------------|
Eb|-------------------------------------------------------------|

Riff 5
                                                                         
Eb|--14p12p10h12p10----10---------------------------------------|
Bb|-----------------14----14-12h14p12p10-14p12p10h12p10---------|
Gb|-----------------------------------------------------12------|
Db|-------------------------------------------------------------|
Ab|-------------------------------------------------------------|
Eb|-------------------------------------------------------------|
                                            
Eb|-------------------------------------------------------------|
Bb|--10---------------------------------------------------------|
Gb|-----12-11h12p11p(b9)12p11p9h11p(b9)---(b9)------------------------|
Db|--------------------------------12---12-11h12p11p(b9)----------|
Ab|-------------------------------------------------------------|
Eb|-------------------------------------------------------------|		   
AcordesyTabs.com © 2008 Acordes y Tablaturas para guitarra. Tabs and Chords for guitar. Aviso Legal - Contacto
El uso de este sitio está sujeto a la aceptación de los términos y condiciones (41 usuarios online)