tablaturas, partituras y acordes para guitarra
Busca por banda/artista:
 
y/o título de la canción:
A B C D E F G H I J K L M N O P Q R S T U V W X Y Z 0 1 2 3 4 5 6 7 8 9 / Top 100 tabs
Categorías
Usuarios
usuario:
Darse de alta
password:
Artistas más visitados
Publicidad
TOP acordes y tablaturas de Yngwie malmsteen


Hold on
de Yngwie malmsteen
Puntúa este acorde/tab:      
(0.8/5)
Reportar este acorde/tab
  Añadir a tus favoritos
  Imprimir
Intro  play 2x
   1/2
|----------------|-----------------|----------------|-------------------|
|--5b---rb5------|-5b--rb5---------|-3h5--3---------|-----------3-------|
|----------------|-----------7--5--|----------5--4h5|p4----5------------|
|----------------|-----------------|----------------|-------------------|
|----------------|-----------------|----------------|-------------------|
|----------------|-----------------|----------------|-------------------|
|                |                 |                |                   |
| fig 1          |                 |                |                   |
|----------------|-----------------|----------------|-------------------|
|----------------|-----------------|----------------|-------------------|
|-5h7---5--------|-5bf-rb5--4h5p4--|-4h5--4--2--4p2-|-1---2----4--------|
|----------------|----------------7|----------------|-------------------|
|----------------|-----------------|----------------|-------------------|
|----------------|-----------------|----------------|-------------------|

|--------------7-8-10-7h8-10-12-8-10-12-13-10-12-13-15-12-13-15-17-13-15-
|-------6-8-10-----------------------------------------------------------
|-5-7-(b9)-----------------------------------------------------------------
|------------------------------------------------------------------------
|------------------------------------------------------------------------
|------------------------------------------------------------------------

                   1/2
-17-1(b9)-15--17--|--19b---rb19p17--19~~~~~--------------------------------|
----------------|--------------------------------------------------------|
----------------|--------------------------------------------------------|
----------------|--------------------------------------------------------|
----------------|--------------------------------------------------------|
----------------|---------------------------------15---------------------|

Verse Fig.2
 Look at me see the love that you're missing
|--5--------5--------------|--5--------5--------------|-5--------5-------
|--6--------5--------------|--6--------5--------------|-6--------5-------
|--5--------5--------------|--5--------5--------------|-5--------5-------
|--7--------7--------------|--7--------7--------------|-7--------7-------
|-----0--0-----0--0--0--0--|-----0--0-----0--0--0--0--|----0--0-----0--0-
|--------------------------|--------------------------|------------------

--------|------------------------|
--------|------------------------|
-----2--|--4--5--7----5h7p5-4----|
-----3--|--------5------------5--|
--0-----|------------------------|
--------|------------------------|

Cont fig 2

can't you see that I'll always be there    always be there
you can't run you can't run from the feelin' tonight
damage done I guess love isn't fair

Sometimes I wonder who you are
|--------------------------|-------------------------|-------------------
|--8--------6--------------|-8--------6--------------|-6--------6--------
|--7--------7--------------|-7--------7--------------|-5--------5--------
|--(b9)-------7--------------|-(b9)-------7--------------|-7--------7--------
|-----5--5-----5--5--5--5--|----5--5-----5--5--5--5--|----0--0-----0--0-- 
|--------------------------|-------------------------|-------------------

--------|
--------|
--------|
--------|
--0--0--|
--------|

 So close  but we've gone too far
|-------------------------|---------------------|-------------|----------|
|-8--------6--------------|--8--------6---5-----|-------------|----------|
|-7--------7--------------|--7--------7------7--|-5--4--5--4h5|p4--5--7--|
|-(b9)-------7--------------|--(b9)-------7---------|-------------|----------|
|----5--5-----5--5--5--5--|-----5--5------------|-------------|----------|
|-------------------------|---------------------|-------------|----------|

Chorus play Fig.1

How long can I hold on till you say goodbye baby
you're gone and its so wrong and now my heart cries for you

  girl                      My heart cries for you
|----------------5/17--|------------------------------------------------|
|-5--------------------|------------------------------------------------|
|----------------------|------------------------------------------------|
|----------------------|------------------------------------------------|
|----------------------|------------------------------------------------|
|----------------------|------------------------------------------------|

Play fig.2
Lonely days fill my nights with such sorrow
shades of grey turn into blue tomorrows

  sometimes I wonder where you are                  where you are
|--------------|---------------|--------------------------------|-------|
|--------------|--5b-rb5-------|--------------------------------|-------|
|--------------|----------7----|-5--7--5--7--7--5--4--7p5p4-----|-------|
|--------------|---------------|-----------------------------5/7|-------|
|--------------|---------------|--------------------------------|-------|
|--------------|---------------|--------------------------------|-------|

Fig.3
so close but your eyes are so far.

Fig.1
How long can I hold on till you say goodbye baby
You're gone I can't go on and my heart now cries for you

  Girl                        my heart cries for you
|-----1--------|-----------0---0-------|--------------------3-----------|
|--------1-----|--------0---------0----|----------1------------3--------|
|-----------2--|-----4-----------------|-------2---------0--------------|
|--------------|-----------------------|----2---------------------------|
|--------------|-----------------------|-0------------2-----------------|
|-1~-----------|--4------------------4-|--------------------------------|

|-----------5-----------|-------------4------------|
|--------------6--------|-------0--3-----3---------|
|-----------------7-----|----4--------------4------|
|-----------------------|--------------------------|
|---5~---------------5--|--------------------------|
|-----------------------|-4---------------------4--|

Guitar solo
                                                                 1/2
|-----------|-----------------------------------10h12-|12h13-13--12b-rb12
|-----------|--------------------------10h12h13-------|------------------
|--5--5h7---|--7h9~------------9h10h12----------------|------------------
|-----------|----------9h10h12------------------------|------------------
|-----------|-----------------------------------------|------------------
|-----------|-----------------------------------------|------------------

--10--------10----|--------------------12-|---------------------12-------
------13-12----13-|-12-10-12--12-13-15----|-15bf--rb15-13-15~------15----
------------------|-----------------------|------------------------------
------------------|-----------------------|------------------------------
------------------|-----------------------|------------------------------
------------------|-----------------------|------------------------------

-13p12----12-------------------------|-----------------------------------|
-------15----15-13p12----13p12-------|-----------------------------------|
----------------------14-------14-12-|-----------------------------------|
-------------------------------------|--14h15p14----14-12----------12-14-|
-------------------------------------|-----------15-------15-14-15-------|
-------------------------------------|-----------------------------------|

------------------------|-----------------------------------------------|
------------------------|-----------13----------------------------------|
------------------------|-----11-14--------------------14---------------|
--12--------------------|--13-------------------------------------------|
-------15-14-15--14-12--|-----------------------------------------------|
------------------------|-----------------------------------------------|

|------------------|----------------------------------------------------|
|-12h13------12----|------13bf--------------13-----12-------------------|
|--------14--------|----------------------------------------------------|
|------------------|----------------------------------------------------|
|------------------|----------------------------------------------------|
|------------------|----------------------------------------------------|

|-----------------0--12p8---------|-12p8---------------------8--12p8-----
|-13p12--------------------10-----|------10---------------10---------10--
|--------14--14~---------------(b9)-|---------------------(b9)---------------
|---------------------------------|----------10p9~-----------------------
|---------------------------------|----------------12--------------------
|---------------------------------|--------------------------------------

--13p8----8h12p8-----12h13p12p10h12p10-|-------10------------------------
-------10--------10--------------------|-13p12----13p12p10---------------
---------------------------------------|-------------------12--14bf------
---------------------------------------|---------------------------------
---------------------------------------|---------------------------------
---------------------------------------|---------------------------------

------------------------12h13----12/13h15p12h15h17p13-|-15h17h19p15---
--------12h15p12-/13h15-------15-------------------------|---------------
--rb14---------------------------------------------------|---------------
---------------------------------------------------------|---------------
---------------------------------------------------------|---------------
---------------------------------------------------------|---------------

     1/2                                              1/2  1/2
-/17h19b--rb19p17h1(b9)--------17-1(b9)20-20bf---|--rb20--19b--19b--rb1(b9)-17-
--------------------------17-----------------|---------------------------
----------------------/17--------------------|---------------------------
---------------------------------------------|---------------------------
---------------------------------------------|---------------------------
---------------------------------------------|---------------------------

         1/2
-------|-19b---rb1(b9)-17----12/17-15-17-13-17----17----17----17-|---------
--16---|-------------------------------------17----15----13----|12h13p12-
-------|-------------------------------------------------------|---------
-------|-------------------------------------------------------|---------
-------|-------------------------------------------------------|---------
-------|-------------------------------------------------------|---------

------------------12p10--------13p12p10-|----------13p12p10-------12h13--
--------10h12h13--------12p10-----------|-13p12p10----------13p10--------
--14~-----------------------------------|--------------------------------
----------------------------------------|--------------------------------
----------------------------------------|--------------------------------
----------------------------------------|--------------------------------

--10-12-----|-13p12p10---------------------------------------------------
------------|----------13-12-10-(b9)-10-12-10------------------------------
------------|-------------------------------12-10-(b9)---------------------
------------|---------------------------------------12-10-(b9)---------(b9)--
------------|-----------------------------------------------12-11-12-----
------------|------------------------------------------------------------

                                                  1/2
-----------------------|------------------------------------------------|
-----------------------|--------------------------17b-------------------|
-----------------------|------------------------------------------------|
-----------------------|------------------------------------------------|
--12-11-8-7------------|------------------------------------------------|
-------------10-8-7p0--|--0dive-w/bar-----------------------------------|

            1/2             1/2
|---------------------------------|--------------------------------------
|---16--17--16b---13h16p13p12b----|--10-----------------------(b9)-10p(b9)---
|---------------------------------|------13~---10h13p10p(b9)-10------------
|---------------------------------|--------------------------------------
|---------------------------------|--------------------------------------
|---------------------------------|--------------------------------------

|--------------------------------|---------------------------------------
|--------------------------------|---------------------------------------
|-12p10p(b9)-10p(b9)-------(b9)--------|-----------------------9h10p9/13h14----
|----------------12p10---12p10p(b9)|-10p(b9)-------9h10p9h10-----------------
|--------------------------------|------12p11----------------------------
|--------------------------------|---------------------------------------

                                            1/2            1/2
----------12-13/16--16h17p16h17p16h17p16--|-19b--rb1(b9)-16--19b--~--------
-12h13p12---------------------------------|-------------------------0----
------------------------------------------|------------------------------
------------------------------------------|------------------------------
------------------------------------------|------------------------------
------------------------------------------|------------------------------

     1/2
--0--19b---|--rb1(b9)-20--20bf---rb20~---|-17h1(b9)20p19p17-19p17-19p17
-----------|---------------------------|---------------------------------
-----------|---------------------------|---------------------------------
-----------|---------------------------|---------------------------------
-----------|---------------------------|---------------------------------
-----------|---------------------------|---------------------------------

---19p17-19p17--20bf-----|
----------------------------------|
----------------------------------|
----------------------------------|
----------------------------------|
----------------------------------|

Chorus  Fig.1
How long can I hold on till you say goodbye baby
you're gone and it's so wrong and now my heart cries for you girl.

 my heart cries for you
    1/2
|---------------------------------|---------------------|-------12-13----
|---------------------------------|---------------12-13-|-13-12----------
|---9b---------(b9)-----------------|---------------------|----------------
|---------------------12----10----|-12h14--14-15--------|----------------
|---------------------------------|---------------------|----------------
|---------------------------------|---------------------|----------------

                                        1/2
--13p12p10-12-10---------------------|----------------------------------|
-----------------13p12p10-10-(b9)------|----------------------------------|
-------------------------------10-(b9)-|--9b---(b9)7----(b9)7-----------------|
-------------------------------------|-----------10-----10-(b9)10-7~------|
-------------------------------------|----------------------------------|
-------------------------------------|----------------------------------|

   1/2
|------------------|-12-------12-------------------------------------10-12|
|------------------|----15-13----15-13-12-15-13-12----------10h12-13------|
|--9b----9~--7--(b9)-|-------------------------------14-13-13---------------|
|------------------|------------------------------------------------------|
|------------------|------------------------------------------------------|
|------------------|------------------------------------------------------|

|-13p12p10-12p10----10----------13p12p10---------------------------------
|----------------13----13p12p10----------13p12-9h10p(b9)--12p10p(b9)---------
|-----------------------------------------------------(b9)--------10p9h10p9
|------------------------------------------------------------------------
|------------------------------------------------------------------------
|------------------------------------------------------------------------

------------------|------------------------20----------------------------
------------------|---------------------17---------------------------17--
--h10p(b9)----------|------------------17------------------------14-17-----
--------12-10-----|---------------14------------------------14-----------
--------------12--|-----12--14/15---------------15-12-12h15--------------
------------------|-12---------------------------------------------------

          1/2
-20p17--|-----------------------------------|----------------16---------|
--------|-17b--17---------------------------|-17~----17~----------17----|
--------|----------19bf--------4--0---12/---|---------------------------|
--------|-----------------------------------|---------------------------|
--------|-----------------------------------|---------------------------|
--------|-----------------------------------|---------------------------|

|------------------------------------------|------------------------17---
|-18p17p16p15p14p13-13-12-13--15h17p13-12--|-13p12--13p12--------17------
|------------------------------------------|--------------14--17---------
|------------------------------------------|-----------------------------
|------------------------------------------|-----------------------------
|------------------------------------------|-----------------------------

--20p17-----|-15h17p15-------15-15h17h19p17p15--13h15p13-12h13p12-10h12p10
------------|----------17h20---------------------------------------------
------------|------------------------------------------------------------
------------|------------------------------------------------------------
------------|------------------------------------------------------------
------------|------------------------------------------------------------

                                                           tremolo picking
--13---|-13-12-13-12-10-12-13------13-------------------|---------------
--------|-----------------------13------12-10-13-(b9)--13--|-15--17---18---
--------|------------------------------------------------|---------------
--------|------------------------------------------------|---------------
--------|------------------------------------------------|---------------
--------|------------------------------------------------|---------------

=============
--16--1(b9)--20-|-20bf----20~---17--|-20p17h1(b9)20p17h1(b9)20p1(b9)20p19p17-20p19
--------------|-------------------|--------------------------------------
--------------|-------------------|--------------------------------------
--------------|-------------------|--------------------------------------
--------------|-------------------|--------------------------------------
--------------|-------------------|--------------------------------------

                          Gonna hold on baby
--20p19p17-20p19p17-1(b9)-|-19~---17-1(b9)-20p19p17-1(b9)--1(b9)|-17h1(b9)-19--12-
------------------------|-------------------------------|----------------
------------------------|-------------------------------|----------------
------------------------|-------------------------------|----------------
------------------------|-------------------------------|----------------
------------------------|-------------------------------|----------------

                How long Hold on
--10h12---12--|-1(b9)20--17--15h17--19h20p17------|--------------------19h20
--------------|-----------------------------17--|-----17--17------17-----
--------------|---------------------------------|------------------------
--------------|---------------------------------|-1(b9)---------1(b9)--------
--------------|---------------------------------|------------------------
--------------|---------------------------------|------------------------

      1/2
--17--19b--rb1(b9)--19p17--|-19p17p16--------------------------------------
-------------------------|----------18p17p15-----------------------------
-------------------------|-------------------17p16p14--------------------
-------------------------|----------------------------15p14--------------
-------------------------|----------------------------------17p15p14-----
-------------------------|-------------------------------------------17p16

-----------------------16-|-14--------------12h13p12----13---------------
-----------------15-18----|----15--------------------15----12-18-10-18-(b9)
--------------16----------|-------16-13-14-------------------------------
--------15-18-------------|----------------------------------------------
--14-17-------------------|----------------------------------------------
--------------------------|----------------------------------------------

--------0--|----------|
-10-13--0--|--13bf----|
-----------|----------|
-----------|----------|
-----------|----------|
-----------|----------|

=======================================================================
h = hammeron                                         
p = pulloff                     
/ = slide                      Fidonet 1:202/762                     
x = ghost note                  MetalNet 282:100/2                    
t = tap (right hand)            The Music Shop BBS (619)423-4970 24hrs
~ = vibrato                     * = picked harmonic
bf = bend full                  tr = trill
rb = release bend               p.s. = pick scrape
dive = dive with bar            b = bend / step written over note
% = repeat bar                  + = natural harmonic		   
AcordesyTabs.com © 2008 Acordes y Tablaturas para guitarra. Tabs and Chords for guitar. Aviso Legal - Contacto
El uso de este sitio está sujeto a la aceptación de los términos y condiciones (29 usuarios online)