tablaturas, partituras y acordes para guitarra
Busca por banda/artista:
 
y/o título de la canción:
A B C D E F G H I J K L M N O P Q R S T U V W X Y Z 0 1 2 3 4 5 6 7 8 9 / Top 100 tabs
Categorías
Usuarios
usuario:
Darse de alta
password:
Artistas más visitados
Publicidad
TOP acordes y tablaturas de Yngwie malmsteen


Heaven tonight
de Yngwie malmsteen
Puntúa este acorde/tab:      
(0.5/5)
Reportar este acorde/tab
  Añadir a tus favoritos
  Imprimir
Fig 1

|-----------------------------|---------------------------|--------------
|-----------------------------|---------------------------|--------------
|-(b9)-------(b9)-------(b9)----7---|----7~------7--7--7--------|-5--------5---
|-(b9)-------(b9)-------(b9)----7---|----7~------7--7--7--------|-5--------5---
|----7-----------7------------|---------------------------|--------------
|----0--0-----0--------0------|-0------0------------0--0--|----0--0------

-----------------|-----------------------------|
-----------------|-------------8--7-----7------|
-----5-----5--7--|-7--7--------7--7--(b9)-7------|  2x
-----5-----5--7--|-7--7--------7--7--7--7------|
-----------------|-----------------------------|
--0-----0--------|---------0-------------------|

Verse
Lost in a dream in the arms of the night.  Two lonely prisoners of our
|----------------------|------------------|-----------------------------|
|----------------------|------------------|-----------------------------|
|--9/11----------------|------------------|-----------------------------|
|----------------------|------------------|-----------------------------|
|----------------------|------------------|-----------------------------|
|----------------------|------------------|-----------------------------|

own device
|------------|
|------------|
|------------|
|------------|
|------------|
|------------|

 Don't let me go     Hold on together 
|--------------------|------------------|--------------|-10-(b9)7----------
|--------------------|------------------|--0-----------|--------10-(b9)7-6-
|--------------------|--2---------------|--1-----------|-----------------
|--------4--2--------|--------------2---|--------------|-----------------
|--------------4--0--|--0--0--2--4--2---|-------8------|-----------------
|-x--x---------------|--------------0---|--------------|-----------------

------------------|
------------------|
-7-6--------------|
------7-6-(b9)------|
------------(b9)8---|
------------------|

You wanna know if love can be real.  I wanna take everything I can steal
|------------------------------------------------------------------------|
|------------------------------------------------------------------------|
|------------------------------------------------------------------------|
|------------------------------------------------------------------------|
|--9~hold-througout------------------------------------------------------|
|------------------------------------------------------------------------|

 Love on the line              It's now or never.
|-----------------------|---------------|----------------|--------------|
|-----------------------|---------------|-------(b9)-------|--------------|
|-----------------------|---------------|-------(b9)-------|--------------|
|----------4--2------2--|-2-------------|-------(b9)-------|--------------|
|-(b9)-------------4--0--|-0----2--4-----|-------------8--|---(8)--------|
|----12----------------|------------0--|-0--0-----------|--------------|

fig. 3
  Why can't the night last forever?
|--------|-----------------|------------|-------------------10p9p7-------
|-7--5---|-3--5---5bf---2--|------------|------------7h9h10--------10p(b9)-
|-7--6---|-4--6---6bf---2--|--4----2----|------6h7h(b9)--------------------
|--------|-----------------|------------|6h7h(b9)--------------------------
|--------|-----------------|--7----5----|--------------------------------
|--------|-----------------|------------|--------------------------------

------------------------------|
-p7---------------------------|
----10p9p7--------------------|
------------11p9p7------------|
--------------------11p9p8----|
------------------------------|

Chorus play fig 1

This could be paradise.  Holding you here by my side.
If we just close our eyes we'll be in heaven tonight.

Verse
  Run through the night down streets of desire burning my soul My heart's on fire
|-----------------|------------|-----------|----------------------------|
|-----------------|------------|-----------|----------------------------|
|-9/11------------|------------|-----------|----------------------------|
|-----------------|------------|-----------|--------------4/14---------|
|-----------------|------------|-----------|----------------------------|
|-----------------|------------|-----------|----------------------------|

  Give up the fight.   It's sweet surrender
|-----------------|------------------|-----------------------|----------|
|-----------------|-------------(b9)---|-------------(b9)--------|----------|
|-----------------|-------------(b9)---|-------------(b9)--------|----------|
|-2/4--4--2-------|-------------(b9)---|-------------(b9)--------|----------|
|------------4		   
AcordesyTabs.com © 2008 Acordes y Tablaturas para guitarra. Tabs and Chords for guitar. Aviso Legal - Contacto
El uso de este sitio está sujeto a la aceptación de los términos y condiciones (25 usuarios online)