tablaturas, partituras y acordes para guitarra
Busca por banda/artista:
 
y/o título de la canción:
A B C D E F G H I J K L M N O P Q R S T U V W X Y Z 0 1 2 3 4 5 6 7 8 9 / Top 100 tabs
Categorías
Usuarios
usuario:
Darse de alta
password:
Artistas más visitados
Publicidad
TOP acordes y tablaturas de Yngwie malmsteen


Golden dawn
de Yngwie malmsteen
Puntúa este acorde/tab:      
(0.6/5)
Reportar este acorde/tab
  Añadir a tus favoritos
  Imprimir
Acoustic
      Em                   D              C               G/B
|---------------7--|---------------|---------------|--------------------|
|---8~------10-----|---10----8--7--|---------------|--------------------|
|---9~-------------|---------------|----(b9)---------|-----7--------------|
|---9~-------------|---------------|---------------|--------------------|
|---7~-------------|---------------|---------------|--------------------|
|------------------|---------------|---------------|--------------------|

     Am               G              D/F#            F7M
|--------------|-----------------|--------------|-----------------------|
|--1----0------|--0h1-----0------|--------------|-----------------------|
|----------2---|-------------2---|---2----------|-----------------------|
|--------------|-----------------|--------------|-----------------------|
|--------------|-----------------|--------------|-----------------------|
|--------------|-----------------|--------------|-----------------------|

         Em               D                  C               G/B
|--------------7-----|-------------------|--------------|----------------|
|---8------10--------|---10------8--7----|--------------|----------------|
|--------------------|-------------------|--(b9)----------|---7------------|
|--------------------|-------------------|--------------|----------------|
|--------------------|-------------------|--------------|----------------|
|--------------------|-------------------|--------------|----------------|

     Am                  Bbdim7                   B4            B
|------------------|--------------6----------|--7--------------|---------|
|------------------|-------5--8-------8---5--|-------7---5h7p5-|--4------|
|----5p4----5------|--6----------------------|-----------------|---------|
|------------------|-------------------------|-----------------|---------|
|------------------|-------------------------|-----------------|---------|
|------------------|-------------------------|-----------------|---------|

      E7/9                                          Am
|-------------------|---------------------------|------------5-----8----|
|-------------------|---------------------------|-----------------------|
|-------------------|-----------4-----------4---|--5--------------------|
|-------------------|--3----6-------3---6-------|-------7---------------|
|---5-------2---5---|---------------------------|-----------------------|
|-------4-----------|---------------------------|-----------------------|

                       Adim7
|--12----13----12---|-----------8---11---8-------|------------------------|
|-------------------|-------10-------------------|--10--------------------|
|-------------------|---11-------------------11--|-------11---8---11-----8|
|-------------------|----------------------------|--------------------10--|
|-------------------|----------------------------|------------------------|
|-------------------|----------------------------|------------------------|

    E4              E                     E7/9
|------------------|-----------------------|---12----13----10----13------|
|------------------|-----------------------|-----------------------------|
|------------------|-----------------------|-----------------------------|
|---7----(b9)----7---|----6----7----(b9)-------|-----------------------------|
|------------------|-----------------------|-----------------------------|
|------------------|-----------------------|-----------------------------|

                                     Am
|------13-------13--------13---|--12----------------------|--------------|
|--13-------12-------10--------|-----------13-----12------|-13------10---|
|------------------------------|------13--------------13--|--------------|
|------------------------------|--------------------------|--------------|
|------------------------------|--------------------------|--------------|
|------------------------------|--------------------------|--------------|

      Adim7                              E4        Bdim7
|-----------8---8---|------------------|----------|----------------------|
|-------7-----------|-10p7-------------|----------|--------8--8--5-------|
|----8--------------|--------8p5-------|----------|-----6-----------6----|
|-------------------|--------------7---|---(b9)-----|--8-------------------|
|-------------------|------------------|----------|----------------------|
|-------------------|------------------|----------|----------------------|

     B4                   B
|-------------------------|-------------|
|--10/12------------------|----7--------|
|-------------------------|-------------|
|-------------------------|-------------|
|-------------------------|-------------|
|-------------------------|-------------|

    Am/G            Am/F#               N.C.
|-----------------|-------------------|---------------------------------|
|--1------0-------|--1------0---------|---------------------------------|
|-------------2---|-------------2-----|----2----------------------------|
|-----------------|-------------------|---------------------------------|
|-----------------|-------------------|---------------------------------|
|-----------------|-------------------|---------------------------------|

Free Time
       Em9
|------------------------------------------10---------8------------------
|--------------10-10-12-12-----------------------------------------------
|-----(b9)11-12--------------11-11-12-12-----------------------------------
|---(b9)---------------------------------12------12-----(b9)10-10-7-7-(b9)--
|------------------------------------------------------------------------
|------------------------------------------------------------------------

--------3--5p3--5--3p0--2h3p2--0--|
-----5----------------------------|
--4-------------------------------|
----------------------------------|
----------------------------------|
----------------------------------|

=======================================================================
h = hammeron                                           
p = pulloff                    
/ = slide                      Fidonet 1:202/762                     
x = ghost note                  MetalNet 282:100/2                    
t = tap (right hand)            The Music Shop BBS (619)423-4970 24hrs
~ = vibrato                     * = picked harmonic
bf = bend full                  tr = trill
rb = release bend               p.s. = pick scrape
dive = dive with bar            b = bend / step written over note
% = repeat bar                  + = natural harmonic		   
AcordesyTabs.com © 2008 Acordes y Tablaturas para guitarra. Tabs and Chords for guitar. Aviso Legal - Contacto
El uso de este sitio está sujeto a la aceptación de los términos y condiciones (17 usuarios online)