tablaturas, partituras y acordes para guitarra
Busca por banda/artista:
 
y/o título de la canción:
A B C D E F G H I J K L M N O P Q R S T U V W X Y Z 0 1 2 3 4 5 6 7 8 9 / Top 100 tabs
Categorías
Usuarios
usuario:
Darse de alta
password:
Artistas más visitados
Publicidad
TOP acordes y tablaturas de Misfits


Estás en: Inicio > Letra M > Acordes y tablaturas de Misfits > Crimson ghost
Crimson ghost
de Misfits
Puntúa este acorde/tab:      
(0.5/5)
Reportar este acorde/tab
  Añadir a tus favoritos
  Imprimir
h - hammer on
p - pull off
^ - bend
/ - slide
~ - vibrato
# - mute note 

Intro
e|-----------------------------------------------------------------------------------
B|-----------------------------------------------------------------------------------
G|-----------------------------------------------------------------------------------
D|-----------------------------------------------------------------------------------
A|-----------------------------------------------------------------------------------
E|-0/12~~~~~~~~~~~~~~~~~~~~~~/13~~~~/12~~~~/13~~~~/12~~~~/13~~~~0-13/0---------------

-------------------------------------------------
-------------------------------------------------
-------------------------------------------------
-------------------------------------------------
------0------------------------------------------
---------3--2----3p2-----------------------------

Riff 1
------------------------------------------------------------------------------------
------------------------------------------------------------------------------------
------------------------------------------------------------------------------------
------------------------------------------0~~~--------------------------------------
--------------------3~~-------------------------------------------3~~~--0-----------
---0-0-0-0-0-0----------0----0-0-0-------------0----0-0-0-----------------3--2--3p2- x3

Interlude
------------------------------------------------------------------------------------
------------------------------------------------------------------------------------
------------------------------------------------------------------------------------
------------------------------------------------------------------------------------
------------------------------------------------------------------------------------
---0--0--3-2----0--0--3-2----0--0--3-2----0--0--3-2---------------------------------

Verse 1
------------------------------------------------------------------------------------
------------------------------------------------------------------------------------
------------------------------------------------------------------------------------
------------------------------------------------------------------------------------
------------------------------------------------------------------------------------
------0-0-0-0-3------0-0-0-0-3------0-0-0-0-3------0-0-0-0-3------------------------

Verse 2
------------------------------------------------------------------------------------
------------------------------------------------------------------------------------
------------------------------------------------------------------------------------
------------------------------------------------------------------------------------
------------------------------------------------------------------------------------
-7-7-7-7-7-7-7--5-5-5-5--8-8-8-8--7-7-7-7-7-7-7--5-5-5-5--8-8-8-8-------------------

------------------------------------------------------------------------------------
------------------------------------------------------------------------------------
------------------------------------------------------------------------------------
------------------------------------------------------------------------------------
------------------------------------------------------------------------------------
-7-7-7-7-7-7-7-5-5-5-5-8-8-8-8-7-7-7-7-7-7-7-5-5-5-5-8-8-8-8-7-7-7-7-7-7-7-5--3-2---

-Repeat Verse 1-

-Repeat Verse 2-

-Repeat Verse 1, 2 times-

Opening to Riff 2
------------------------------------------------------------------------------------
------------------------------------------------------------------------------------
------------------------------------------------------------------------------------
------------------------------------------------------------------------------------
------------------------------------------------------------------------------------
-------0-0-0-0-0-0-0----------------------------------------------------------------

Riff 2
Note that the hammering in this riff is hammered really fast.
------------------------------------------------------------------------------------
------------------------------------------------------------------------------------
------------------------------------------------------------------------------------
------------------------------------------------------------------------------------
------------------------------------------------------------------------------------
----0-0-0-0-0h1~---0-0-0-0-1h2~---0-0-0-0-2h3~---0-0-0-0-3h2~---0-0-0-0-2h1~--------

-Repeat Riff 2, 8 times-

Outro
--------------------------------------------------------------0#--------------------
--------------------------------------------------------------0#--------------------
--------------------------------------------------------------0#--------------------
----0~~~~~~~~~~~~~~~~~~~~~~~~~~~~~~~~~~~~~~~~~~~~~~~~~~~~~~~~~0#--------------------
----0~~~~~~~~~~~~~~~~~~~~~~~~~~~~~~~~~~~~~~~~~~~~~~~~~~~~~~~~~0#--------------------
-15/0~~~~~~~~~~~~~~~~~~~~~~~~~~~~~~~~~~~~~~~~~~~~~~~~~~~~~~~~~0#--------------------		   
AcordesyTabs.com © 2008 Acordes y Tablaturas para guitarra. Tabs and Chords for guitar. Aviso Legal - Contacto
El uso de este sitio está sujeto a la aceptación de los términos y condiciones (30 usuarios online)