tablaturas, partituras y acordes para guitarra
Busca por banda/artista:
 
y/o título de la canción:
A B C D E F G H I J K L M N O P Q R S T U V W X Y Z 0 1 2 3 4 5 6 7 8 9 / Top 100 tabs
Categorías
Usuarios
usuario:
Darse de alta
password:
Artistas más visitados
Publicidad
TOP acordes y tablaturas de Atreyu


Estás en: Inicio > Letra A > Acordes y tablaturas de Atreyu > When two are one (two become one)
When two are one (two become one)
de Atreyu
Puntúa este acorde/tab:      
(1.2/5)
Reportar este acorde/tab
  Añadir a tus favoritos
  Imprimir
riff 1 - introdução
d|-11--------------10--------------10-------------10------------------------|
a|-------13----x4---------11----x4-------10----x4-------11----x4------------|
f|----12----12---------12----12-------11----11-------12----12---------------|
c|--------------------------------------------------------------------------|
g|--------------------------------------------------------------------------|
c|--------------------------------------------------------------------------|

d|-3----------5----------6-----------6--------------|
a|-----4---x4-----6---x4-----8---x4------8---x4-----|
f|---5---5------7---7------8---8-------7---7--------|
c|--------------------------------------------------|
g|--------------------------------------------------|
c|--------------------------------------------------|

riff-2 da introdução Guitarra 1
d|---------------------------------------------------17-17b18-(17)----------|
a|-----------------------------------------/15-16-15------------------------|
f|-5-7-8---7h8p7----7---------------7---3-----------------------------------|
c|---------------10---10-8h10p8-------------------------------------------|
g|-3-5-6----------------------------5---1-----------------------------------|
c|--------------------------------------------------------------------------|

d|--17h18p17p15-17p15----15------------------18------------------------|
a|--------------------17----17p15h17p15--------------------------------|
f|---------------------------------------17-----158-8/10-5/17-------|
c|---------------------------------------------------------------------|
g|---------------------------------------------------------------------|
c|---------------------------------------------------------------------|

riff-2 da introdução - guitarra 2
d|--------------------------------------------------------------------------|
a|--------------------------------------------------------------------------|
f|-5--5-555-5--5-5555-5-5-555--5--5-5555------------------------------------|
c|-5--5-555-5--5-5555-5-5-555--5--5-5555-5-5-555-5-5-5555-5-5-5555-5-5-555--|
g|-3--3-333-3--3-3333-3-3-333--3--3-3333-5-5-555-5-5-5555-5-5-5555-5-5-555--|
c|---------------------------------------5-5-555-5-5-5555-5-5-5555-5-5-555--|
      . ...    . .... . . ...   . ....   . . ...   . .... . . ....   . ...

d|--------------------------------------------------------------------------|
a|--------------------------------------------------------------------------|
f|-3--3-333-3--3-3333-3-3-333--3--3-3333------------------------------------|
c|-3--3-333-3--3-3333-3-3-333--3--3-3333-3-3-333-3-3-3333-3-3-3333-3-3-333--|
g|-1--1-111-1--1-1111-1-1-111--1--1-1111-3-3-333-3-3-3333-3-3-3333-3-3-333--|
c|---------------------------------------3-3-333-3-3-3333-3-3-3333-3-3-333--|
   .  . ...    . .... . . ...   . ....   . . ...   . .... . . ....   . ...

Verso
d|--------------------------------------------------------------------------|
a|--------------------------------------------------------------------------|
f|-5--5-555-5--5-5555-5-5-555--5--5-5555------------------------------------|
c|-5--5-555-5--5-5555-5-5-555--5--5-5555-5-5-555-5-5-5555-5-5-5555-5-5-555--|
g|-3--3-333-3--3-3333-3-3-333--3--3-3333-5-5-555-5-5-5555-5-5-5555-5-5-555--|
c|---------------------------------------5-5-555-5-5-5555-5-5-5555-5-5-555--|
   .  . ...    . .... . . ...   . ....   . . ...   . .... . . ....   . ...

d|--------------------------------------------------------------------------|
a|--------------------------------------------------------------------------|
f|-3--3-333-3--3-3333-3-3-333--3--3-3333------------------------------------|
c|-3--3-333-3--3-3333-3-3-333--3--3-3333-3-3-333-3-3-3333-3-3-3333-3-3-333--|
g|-1--1-111-1--1-1111-1-1-111--1--1-1111-3-3-333-3-3-3333-3-3-3333-3-3-333--|
c|---------------------------------------3-3-333-3-3-3333-3-3-3333-3-3-333--|
   .  . ...    . .... . . ...   . ....   . . ...   . .... . . ....   . ...

Pré-refrão
d|------------------------------------------------------|
a|------------------------------------------------------|
f|-5-55--5--8-88--8-----------7-77-7--5-55-5--8-88-8----|
c|-5-55--5--8-88--8--5-55--5--7-77-7--5-55-5--8-88-8----|
g|-3-33--3--6-66--6--5-55--5--5-55-5--3-33-3--6-66-6----|
c|-------------------5-55--5----------------------------|

refrão
d|----------------------------------------|
a|----------------------------------------|
f|--------------------88888888-55555555---|
c|-55555555-88888888--88888888-55555555---| x2
g|-55555555-88888888--66666666-33333333---|
c|-55555555-88888888----------------------|

Guitarra solo 1
d|-/18-17-18---/18p17h18b20-(18)-17-18--17-15-----------------13-----------|
a|---------------------------------------------15---/15-13-15----15-13-15--|
f|--------------------------------------------------------------------------|
c|--------------------------------------------------------------------------|
g|--------------------------------------------------------------------------|
c|--------------------------------------------------------------------------|

d|-151515------------------------------------------------------------------|
a|---------151515----------------------------------------------------------|
f|-----------------151515--121212-----------------------------------------|
c|-----------------------------------121212--------------------------------|
g|--------------------------------------------131313--10~------------------|
c|--------------------------------------------------------------------------|

d|-------------------/18-17-15----------------|
a|------------------------------18b20---------|
f|-------5-7-88-7~----------------------------|
c|-5-7-8--------------------------------------|
g|--------------------------------------------|
c|--------------------------------------------|

Repete Verso
Repete Pré-refrão
Repete refrão
Repete riff-1 da introdução

d|--------------------------------------------------------------------------|
a|--------------------------------------------------------------------------|
f|-5555555-5---3333333-3----8888888-8---------------------------------------|
c|-5555555-5---3333333-3----8888888-8--5-5-5555-5-5-5555-5-5555--5-5h6------|
g|-3333333-3---1111111-1----6666666-6--5-5-5555-5-5-5555-5-5555--5-5h6------|
c|-------------------------------------5-5-5555-5-5-5555-5-5555--5-5h6------|
   .......     .......      .......    . . ....   . ....   ....  .

Repete pré-refrão
Repete Refrão

Saida : Guitarra 2
d|-----------------------------------------------|
a|-----------------------------------------------|
f|-----------------------------------------------|
c|-5-5-5555-5-5-5555-5-5-5555-5-5-5h6------------|
g|-5-5-5555-5-5-5555-5-5-5555-5-5-5h6------------|
c|-5-5-5555-5-5-5555-5-5-5555-5-5-5h6------------|
     . ....   . ....   . ....   .

Saída : guitarra 1
d|-15p10--10h15p10--10h15p10--10h15-16p11--11h15p11--11h15p11--11h15p11----|
a|------11--------11--------11-----------13--------13--------13--------13--|
f|-------------------------------------------------------------------------|
c|-------------------------------------------------------------------------|
g|-------------------------------------------------------------------------|
c|-------------------------------------------------------------------------|

d|-17p15--15h17p15--15h17p15--15h17p15--15h18p15--15h18p15--15h18p15-------|
a|------13--------13--------13--------13--------13--------13--------13-----|
f|-------------------------------------------------------------------------|
c|-------------------------------------------------------------------------|
g|-------------------------------------------------------------------------|
c|-------------------------------------------------------------------------|

d|-15h18p15--------------------------12h14h15p14p12-------------------------|
a|---------13--------------12h13h15----------------15p13p12----------------|
f|-----------------12h14h15----------------------------------15p12----------|
c|--------------------------------------------------------------------------|
g|--------------------------------------------------------------------------|
c|--------------------------------------------------------------------------|

d|----------------15h17h18-18-18p17p15--------------------------------------|
a|-------15h16h18----------------------18p16p15-----------------------------|
f|-15h17----------------------------------------17p15-----------------------|
c|--------------------------------------------------------------------------|
g|--------------------------------------------------------------------------|
c|--------------------------------------------------------------------------|

d|--------------------------------------------------------------------------|
a|-------------------------------------------------------------15p13h15p13--|
f|-------------------------------------14p12h14p12-15p14h15p14--------------|
c|-------------12p10h12p10-13p12h13p12--------------------------------------|
g|-12p10h12p10--------------------------------------------------------------|
c|--------------------------------------------------------------------------|

d|-15p13h15-15//////////////////////////////////22b26----------|
a|-------------------------------------------------------------|
f|-------------------------------------------------------------|
c|-------------------------------------------------------------|
g|-------------------------------------------------------------|
c|-------------------------------------------------------------|		   
AcordesyTabs.com © 2008 Acordes y Tablaturas para guitarra. Tabs and Chords for guitar. Aviso Legal - Contacto
El uso de este sitio está sujeto a la aceptación de los términos y condiciones (25 usuarios online)