tablaturas, partituras y acordes para guitarra
Busca por banda/artista:
 
y/o título de la canción:
A B C D E F G H I J K L M N O P Q R S T U V W X Y Z 0 1 2 3 4 5 6 7 8 9 / Top 100 tabs
Categorías
Usuarios
usuario:
Darse de alta
password:
Artistas más visitados
Publicidad
TOP acordes y tablaturas de Rbd


Estás en: Inicio > Letra R > Acordes y tablaturas de Rbd > Liso sensual
Liso sensual
de Rbd
Puntúa este acorde/tab:      
(0.4/5)
Reportar este acorde/tab
  Añadir a tus favoritos
  Imprimir
Intro: 
G|-7-7-7-7---------------(b9)(b9)(b9)(b9)--------------|  
D|-7-7-7-7----7-7-7-7----(b9)(b9)(b9)(b9)---5-5-5-5----| 
A|-5-5-5-5----7-7-7-7----7-7-7-7----5-5-5-5----| (2x) 
E|------------5-5-5-5---------------3-3-3-3----|  
 
Verso: 
G|-7-7-7-7---------------(b9)(b9)(b9)(b9)--------------|  
D|-7-7-7-7----7-7-7-7----(b9)(b9)(b9)(b9)---5-5-5-5----| 
A|-5-5-5-5----7-7-7-7----7-7-7-7----5-5-5-5----| (2x) 
E|------------5-5-5-5---------------3-3-3-3----|   
  
G|-4-4-4-4---------------(b9)(b9)(b9)(b9)--------------|  
D|-4-4-4-4----7-7-7-7----(b9)(b9)(b9)(b9)---5-5-5-5----| 
A|-2-2-2-2----7-7-7-7----7-7-7-7----5-5-5-5----| (2x) 
E|------------5-5-5-5---------------3-3-3-3----|  
  
Verso: 
G|-7-7-7-7---------------(b9)(b9)(b9)(b9)--------------|  
D|-7-7-7-7----7-7-7-7----(b9)(b9)(b9)(b9)---5-5-5-5----| 
A|-5-5-5-5----7-7-7-7----7-7-7-7----5-5-5-5----| (2x) 
E|------------5-5-5-5---------------3-3-3-3----|   
  
G|-4-4-4-4---------------(b9)(b9)(b9)(b9)--------------|  
D|-4-4-4-4----7-7-7-7----(b9)(b9)(b9)(b9)---5-5-5-5----| 
A|-2-2-2-2----7-7-7-7----7-7-7-7----5-5-5-5----| (2x) 
E|------------5-5-5-5---------------3-3-3-3----|  
   
Refrão: 
G|-7-7-7-7---------------(b9)(b9)(b9)(b9)--------------|  
D|-7-7-7-7----7-7-7-7----(b9)(b9)(b9)(b9)---5-5-5-5----| 
A|-5-5-5-5----7-7-7-7----7-7-7-7----5-5-5-5----| (4x) 
E|------------5-5-5-5---------------3-3-3-3----| 
 
 (Segue assim o resto da música)		   
AcordesyTabs.com © 2008 Acordes y Tablaturas para guitarra. Tabs and Chords for guitar. Aviso Legal - Contacto
El uso de este sitio está sujeto a la aceptación de los términos y condiciones (26 usuarios online)