tablaturas, partituras y acordes para guitarra
Busca por banda/artista:
 
y/o título de la canción:
A B C D E F G H I J K L M N O P Q R S T U V W X Y Z 0 1 2 3 4 5 6 7 8 9 / Top 100 tabs
Categorías
Usuarios
usuario:
Darse de alta
password:
Artistas más visitados
Publicidad
TOP acordes y tablaturas de Nightmare


The world
de Nightmare
Puntúa este acorde/tab:      
(0.4/5)
Reportar este acorde/tab
  Añadir a tus favoritos
  Imprimir
G||----------------------|-------------------------|-------------------------|
D||----------------------|-------------------------|--------/4----2----------|
A||----------------------|----------------------2--|--L--2-----------4----0--|
E||-------------------2--|-----2--2--2-------------|-------------------------|
                                                    
--------------------------|--------------------------|-------------------------|
--------7g2----0----------|--------5g0---------------|-------------------------|
--L--0------------4-------|---------------0----------|-------------1--1--1--2--|
-----------------------3--|--L--3------------3----2--|--L--2--2----------------|
                                      
-------------------------|-----------------------/0--|
--------/4----2----------|--------7g2----0-----------|
--L--2-----------4----0--|--L--0------------4--------|
-------------------------|---------------------------|
         
---L--0--0--0------0--0-----|--------------------------|
---------------4 --------4--|--L--4--4--4--4-----------|
----------------------------|-----------------4--4--2--|
----------------------------|--------------------------|
                                                        
-------------------------|--------------------------|--------------------------|
--------/4----1----------|--------7g2----0----------|--------5g0---------------|
--L--2-----------4----0--|--L--0------------4-------|---------------0----------|
-------------------------|-----------------------3--|--L--3------------3----2--|
                                        
-------------------------|-------------------------|-----------------------/0--|
-------------------------|--------/4----2----------|--------7g2----0-----------|
-------------1--1--1--2--|--L--2-----------4----0--|--L--0------------4--------|
--L--2--2----------------|-------------------------|---------------------------|
                
---L--0--0--0------0--0-----|--------------------------|
---------------4 --------4--|--L--4--4--4--4-----------|
----------------------------|-----------------4--4--2--|
----------------------------|--------------------------|
                        
|---------------------------|--------------------------|
|*--------------------------|--------------0--0--2-----|
|*--L--2--2--2--2--2--2--2--|--2--2--4--4--------------|
|---------------------------|-----------------------3--|
              
--------------------------|--------/0----0-----0-----|
--------------------------|-----------------4-----0--|
--------------------------|--------------------------|
--L--3--3--3--3--3--3--3--|--3--3--------------------|
            
--------------------------|--------------------------|
--L--0--0--0--0--0--0--0--|--0--0--------0--0--2--4--|
--------------------------|--------4--4--------------|
--------------------------|--------------------------|
                  
----------------------------|--------------------------||
--L--4--4--4--3 --4--4p--3--|--4--4--4----4-----------*||
----------------------------|----------------4--4--2--*||
----------------------------|--------------------------||
                              
--------------------------|--------3--3--4--4--6----|-------------------------|
-----4--4--4--3--3--4--3--|--4--4--------------------|-------------------------|
--L-----------------------|--------------------------|-----------0--L----------|
--------------------------|--------------------------|--7--7--------------3----|
                              
---------------------|--------------------------|--------------------------|
---------------------|--------------------------|--------------------------|
------------------2--|--L--2--2--2--2--2--2--2--|--2--2--2--2--2--2--2-----|
--L------------3-----|--------------------------|-----------------------3--|
                      
--------------------------|--------------------------|
--------------------------|--------------------------|
--------------------------|-----------------------2--|
--L--3--3--3--3--3--3--3--|--3--3--3--3--3--3--3-----|
                      
--------------------------|--------------------------|
--------------------------|--------------------------|
--L--2--2--2--2--2--2--2--|--2--2--2--2--2--2--2--0--|
--------------------------|--------------------------|
                        
--------------------------|----------------------------|
--------------------------|-----0s--2--0------0--------|
--L--0--0--0--0--0--0--0--|--0------------4 -----4--2--|
--------------------------|----------------------------|


                      
--------------------------|--------------------------|
--------------------------|--------------------------|
--L--2--2--2--2--2--2--2--|--2--2--2--2--2--2--2-----|
--------------------------|-----------------------3--|


                      
--------------------------|--------------------------|
--------------------------|-----------------------0--|
--------------------------|--------------------------|
--L--3--3--3--3--3--3--3--|--3--3--3--3--3--3--3-----|


                      
--------------------------|--------------------------|
--L--0--0--0--0--0--0--0--|--0--0--------0--0--2--4--|
--------------------------|--------4--4--------------|
--------------------------|--------------------------|


                                           
--------------------------|--------------------------|------------------------|
--L--4--4--4--4--4--4--4--|--4--4--4--4--4--2--------|------------------------|
--------------------------|--------------------4----|------------------------|
--------------------------|--------------------------|--3-------3--3----x--3--|


                                                
------------------------|------------------------|-------------------------|
------------------------|------------------------|-------------------------|
-------------------2----|--0-------0--0-------0--|-----0-----0--0----------|
-----3-----3--3---------|------------------x-----|-------------------------|


                                          
-----------------------|--------------------------|--------------------------|
-----------------------|-----------------------0--|--L--0--0--0--0--0--0--0--|
-----------------------|--------------------------|--------------------------|
--3----3----3--3--3----|--3--3--3--3--3--3--3-----|--------------------------|


                      
--------------------------|--------------------------|
--0--0--2--2--0--0--------|--------------------------|
--------------------4-----|--------------------------|
-----------------------2--|--L--2--2--2--2--2--2--2--|


                      
--------------------------|--------------------------|
--------------------------|--------------------------|
-----------------------2--|--L--2--2--2--2--2--2--2--|
--2--2--2--2--2--2--2-----|--------------------------|


                      
--------------------------|--------------------------|
--------------0-----------|--------------------------|
--2--2--0--2-----3--2-----|--------------------------|
-----------------------3--|--L--3--3--3--3--3--3--3--|


                      
--------------------------|--------------------------|
-----------------------0--|--L--0--0--0--0--0--0--0--|
--------------------------|--------------------------|
--3--3--3--3--3--3--3-----|--------------------------|


                       
--------------------------|---------------------------|
--0--0--------0--0--2--4--|--L--4--4--4--3 --4--4--3--|
--------4--4--------------|---------------------------|
--------------------------|---------------------------|


                                    
--------------------------|--------------------------|-------------------------|
--4--4--4--4--4--4--4-----|--------------------------|-------------------------|
--------------------------|--------------------------|----------------------2--|
-----------------------2--|--L--2--2--2--2--2--2--2--|--L--2--2-----2----------|


                                                        
-------------------------|--------------------------|--------------------------|
--------/4----2----------|--------7g2----0----------|--------5g0---------------|
--L--2-----------4----0--|--L--0------------4-------|---------------0----------|
-------------------------|-----------------------3--|--L--3------------3----2--|


                                                   
-------------------------|-------------------------|-----------------------0--|
-------------------------|--------/4----2----------|--------7g2----0----------|
-------------1--1--1--2--|--L--2-----------4----0--|--L--0------------4-------|
--L--2--2----------------|-------------------------|--------------------------|


                                        
--L--0--0--0-----0--0-----|--------------------------|-------------------------|
--------------4--------4--|--L--4--4--4--4-----------|--------/4----2----------|
--------------------------|-----------------4--4--2--|--L--2-----------4----0--|
--------------------------|--------------------------|-------------------------|


                                                    
--------------------------|--------------------------|-------------------------|
--------7g2----0----------|--------5g0---------------|-------------------------|
--L--0------------4-------|---------------0----------|-------------1--1--1--2--|
-----------------------3--|--L--3------------3----2--|--L--2--2----------------|


                                     
-------------------------|-----------------------0--|
--------/4----2----------|--------7g2----0----------|
--L--2-----------4----0--|--L--0------------4-------|
-------------------------|--------------------------|


                          
--L--0--0--0------0--0-----|-------------------------|
--------------4 --------4--|--L--4--4----4-----------|
---------------------------|----------------4--4-----|
---------------------------|----------------------3--|


                                        
--------------------------|-------------------------|--------------------------|
--------------------------|--------/0---------------|--------0--0--------------|
--------------------2--0--|--L--0--------4----0--2--|--L--2--------4--4--2--0--|
--L--3--2--2--3--3--------|-------------------------|--------------------------|


                          .              
---------------------------|--------------------------|---------------------|
--------/2--2--0--0--------|--------------------------|---------------------|
--L--0---------------4-----|--------------------0-----|------------------2--|
------------------------3--|--L--3--2--2--3--3-----2--|--L------------L-----|


                      
--------------------------|--------------------------|
--------------------------|--------------0--0--2-----|
--L--2--2--2--2--2--2--2--|--2--2--4--4--------------|
--------------------------|-----------------------3--|


                          
--------------------------|--------/0----0-----0-----|
--------------------------|-----------------4-----0--|
--------------------------|--------------------------|
--L--3--3--3--3--3--3--3--|--3--3--------------------|


                      
--------------------------|--------------------------|
--L--0--0--0--0--0--0--0--|--0--0--------0--0--2--4--|
--------------------------|--------4--4--------------|
--------------------------|--------------------------|


                        
----------------------------|--------------------------|
--L--4--4--4--3 --4--3 --4--|--4--4--4--4--4-----------|
----------------------------|-----------------4--4--2--|
----------------------------|--------------------------|


                      
--------------------------|--------------------------|
--------------------------|--------------0--0--2-----|
--L--2--2--2--2--2--2--2--|--2--2--4--4--------------|
--------------------------|-----------------------3--|


                          
--------------------------|--------/0----0-----0-----|
--------------------------|-----------------4-----0--|
--------------------------|--------------------------|
--L--3--3--3--3--3--3--3--|--3--3--------------------|


                      
--------------------------|--------------------------|
--L--0--0--0--0--0--0--0--|--0--0--------0--0--2--4--|
--------------------------|--------4--4--------------|
--------------------------|--------------------------|


                            
----------------------------|--------3--3--4--4--6----|
--L--4--4--4--3 --4--3 --4--|--4--4--------------------|
----------------------------|--------------------------|
----------------------------|--------------------------|


                                         
--------------------------|----------------------|--------------------------|
--------------------------|----------------------|--------------------------|
-----------0--0-----2--2--|-----0--0-------------|--2--2-----0--0-----2--2--|
--7--7--------------------|----------------------|--------------------------|


                    .                     .                
------------------------|----------------------|----------------------|
------------------------|----------------------|-----------------0----|
-----0--0----2--2--0----|--2------2--L----2----|--L--0------2---------|
------------------------|----------------------|----------------------|


   .                   W                    .                 
----------------------|-------------------|--------------------|
----------------------|-------------------|--------------------|
--2------0--L---------|-------------------|--------------------|
-----------------3----|--L----------------|--L-----------------|


                                          
-----------------------|--------------------------|--------------------------|
-----------------------|-----------------------0--|--L--0--0--0--0--0--0--0--|
-----------------------|--------------------------|--------------------------|
--3----3----3--3--3----|--3--3--3--3--3--3--3-----|--------------------------|


                      
--------------------------|--------------------------|
--0--0--2--2--0--0--------|--------------------------|
--------------------4-----|--------------------------|
-----------------------2--|--L--2--2--2--2--2--2--2--|


                      
--------------------------|--------------------------|
--------------------------|--------------------------|
-----------------------2--|--L--2--2--2--2--2--2--2--|
--2--2--2--2--2--2--2-----|--------------------------|


                      
--------------------------|--------------------------|
--------------0--0--------|--------------------------|
--2--2--0--0--------4-----|--------------------------|
-----------------------3--|--L--3--3--3--3--3--3--3--|


                      
--------------------------|--------------------------|
-----------------------0--|--L--0--0--0--0--0--0--0--|
--------------------------|--------------------------|
--3--3--3--3--3--3--3-----|--------------------------|


                       
--------------------------|---------------------------|
--0--0--------0--0--2--4--|--L--4--4--4--3 --4--4--3--|
--------4--4--------------|---------------------------|
--------------------------|---------------------------|


                                    
--------------------------|--------------------------|-------------------------|
--4--4--4--4--4--4--4-----|--------------------------|-------------------------|
--------------------------|--------------------------|-------------------------|
-----------------------2--|--L--2--2--2--2--2--2--2--|--L--2--2-----2-------2--|


                                                   
-------------------------|-------------------------|--------------------------|
-------------------------|--------/4----2----------|--------7g2----0----------|
----------------------2--|--L--2-----------4----0--|--L--0------------4-------|
-----2--2--2-------------|-------------------------|-----------------------3--|


                                                   
--------------------------|-------------------------|-------------------------|
--------5g0---------------|-------------------------|--------/4----2----------|
---------------0----------|-------------1--1--1--2--|--L--2-----------4----0--|
--L--3------------3----2--|--L--2--2----------------|-------------------------|


                              
-----------------------0--|--L--0--0--0-----0--0-----|
--------7g2----0----------|--------------4--------4--|
--L--0------------4-------|--------------------------|
--------------------------|--------------------------|


                                                
--------------------------|-------------------------|--------------------------|
--L--4--4--4--4-----------|--------/4----2----------|--------7g2----0----------|
-----------------4--4--2--|--L--2-----------4----0--|--L--0------------4-------|
--------------------------|-------------------------|-----------------------3--|


                                                   
--------------------------|-------------------------|-------------------------|
--------5g0---------------|-------------------------|--------/4----2----------|
---------------0----------|-------------1--1--1--2--|--L--2-----------4----0--|
--L--3------------3----2--|--L--2--2----------------|-------------------------|


                               
-----------------------0--|--L--0--0--0------0--0-----|
--------7g2----0----------|--------------4 --------4--|
--L--0------------4-------|---------------------------|
--------------------------|---------------------------|


                                           
-------------------------|--------------------------|-------------------------|
--L--4--4----4-----------|--------------------------|--------/0---------------|
----------------4--4-----|--------------------2--0--|--L--0--------4----0--2--|
----------------------3--|--L--3--2--2--3--3--------|-------------------------|


                       
--------------------------|---------------------------|
--------0--0--------------|--------/2--2--0--0--------|
--L--2--------4--4--2--0--|--L--0---------------4-----|
--------------------------|------------------------3--|


             W                                    
--------------------------|-------------------|----------------------|
--------------------------|-------------------|----------------------|
--------------------2-----|-------------------|-------------------2--|
--L--3--2--2--3--3-----2--|--L----------------|--L-------------------|


                                                        
-------------------------|--------------------------|--------------------------|
--------/4----2----------|--------7g2----0----------|--------5g0---------------|
--L--2-----------4----0--|--L--0------------4-------|---------------0----------|
-------------------------|-----------------------3--|--L--3------------3----2--|


                                                    
-------------------------|-------------------------|-----------------------/0--|
-------------------------|--------/4----2----------|--------7g2----0-----------|
-------------1--1--1--2--|--L--2-----------4----0--|--L--0------------4--------|
--L--2--2----------------|-------------------------|---------------------------|


                       
---L--0--0--0-----0--0-----|--------------------------|
---------------4--------4--|--L--4--4--4--4-----------|
---------------------------|-----------------4--4--2--|
---------------------------|--------------------------|


                                                        
-------------------------|--------------------------|--------------------------|
--------/4----2----------|--------7g2----0----------|--------5g0---------------|
--L--2-----------4----0--|--L--0------------4-------|---------------0----------|
-------------------------|-----------------------3--|--L--3------------3----2--|


                                            
--------------------/3--4--|--L----------2--3--4--2--|--L----(b9)---(b9)-7--6-----|
---------------------------|-------4--4--------------|----------------------5--|
--------1--1--4--4---------|-------------------------|-------------------------|
--L--2---------------------|-------------------------|-------------------------|


                                        
--------------------0-----|--------3--3--4--4--6----|-------------------------|
--L--5--5--5--4--4-----4--|--L--4--------------------|-------------------------|
--------------------------|--------------------------|-----------0--0----------|
--------------------------|--------------------------|--7--7-------------------|		   
AcordesyTabs.com © 2008 Acordes y Tablaturas para guitarra. Tabs and Chords for guitar. Aviso Legal - Contacto
El uso de este sitio está sujeto a la aceptación de los términos y condiciones (113 usuarios online)