tablaturas, partituras y acordes para guitarra
Busca por banda/artista:
 
y/o título de la canción:
A B C D E F G H I J K L M N O P Q R S T U V W X Y Z 0 1 2 3 4 5 6 7 8 9 / Top 100 tabs
Categorías
Usuarios
usuario:
Darse de alta
password:
Artistas más visitados
Publicidad
TOP acordes y tablaturas de Chicago


Feel
de Chicago
Puntúa este acorde/tab:      
(0.4/5)
Reportar este acorde/tab
  Añadir a tus favoritos
  Imprimir
Tuning:Standard 
 
Pre-Chorus 
e|----------------------------------------------------------------------| 
B|---------3---------------3--------------------------------------------| 
G|-------4---------------4----------------------------------------------| 
D|-----5---------------5------------------------------------------------| 
A|----------------------------------------------------------------------| 
E|---3---------------3--------------------------------------------------| 
 
Chorus 
e|------------------------------------------------------------------| 
B|------------------------------------------------------------------| 
G|--------7--6--4--2------------------------------------------------| 
D|--------7--6--4--2--5--4--2----4--5-------------------------------| 
A|--------5--4--2--0--5--4--2----4--5-------------------------------| 
E|--------------------3--2--0----2--3-------------------------------|x2 
 
Verse 2 
e|---------------------------------------------------------------------| 
B|---------------------------------------------------------------------| 
G|----------------7-7-7----------7-7-7----6-6-6--7-7-7--6-6-6--7-7-7---| 
D|---------7-7-7--7-7-7---7-7-7--7-7-7----6-6-6--7-7-7--6-6-6--7-7-7---| 
A|---------7-7-7--5-5-5---7-7-7--5-5-5----4-4-4--5-5-5--4-4-4--5-5-5---| 
E|---------5-5-5----------5-5-5----------------------------------------| 
 
Pre Chorus 
 
Chorus 
 
Bridge 
e|---------------------------------3-------------------------------| 
B|-------------3--------3--------3---3-----------------------------| 
G|-----------4--------4--------4-------4------/11--9--7--9---7-----| 
D|---------5--------4--------5-------------------------------------| 
A|-----------------------------------------------------------------| 
E|--------0-------2--------3---------------------------------------| 
 
e|---17-----------17-----------------------------------------------------| 
B|---20^--20--19--20^----------------------------------------------------| 
G|-----------------------------------------------------------------------| 
D|-----------------------------------------------------------------------| 
A|-----------------------------------------------------------------------| 
E|-----------------------------------------------------------------------| 
 
Chorus 
 
Solo 
e|----------------------17^--17--15----------------------------| 
B|----17^15----17^15-----------------17^15---------------------| 
G|-----------------------------------------16--14--------------| 
D|-------------------------------------------------etc---------| 
A|-------------------------------------------------------------| 
E|-------------------------------------------------------------| 
 
e|----------17--15--14-------------17--15--14----------17--15--14-------| 
B|---15/17--------------17--15-15--------------17--15--------------17---| 
G|----------------------------------------------------------------------| 
D|----------------------------------------------------------------------| 
A|----------------------------------------------------------------------| 
E|----------------------------------------------------------------------| 
 
e|-----------------------------------------------------------------------| 
B|--17^15--17p15---------------------------------------------------------| 
G|----------------16--14--16---------------------------------------------| 
D|------------------------------------12--14--14^12--14p12---------------| 
A|-------------------------------/14-------------------------14--12--14--| 
E|-----------------------------------------------------------------------|ETC.. 
 
| /  slide up 
|   slide down 
| h  hammer-on 
| p  pull-off 
| ~  vibrato 
| +  harmonic 
| x  Mute note
		   
AcordesyTabs.com © 2008 Acordes y Tablaturas para guitarra. Tabs and Chords for guitar. Aviso Legal - Contacto
El uso de este sitio está sujeto a la aceptación de los términos y condiciones (32 usuarios online)