tablaturas, partituras y acordes para guitarra
Busca por banda/artista:
 
y/o título de la canción:
A B C D E F G H I J K L M N O P Q R S T U V W X Y Z 0 1 2 3 4 5 6 7 8 9 / Top 100 tabs
Categorías
Usuarios
usuario:
Darse de alta
password:
Artistas más visitados
Publicidad
TOP acordes y tablaturas de Guitar hero


Estás en: Inicio > Letra G > Acordes y tablaturas de Guitar hero > Welcome to the jungle
Welcome to the jungle
de Guitar hero
Puntúa este acorde/tab:      
(0.2/5)
Reportar este acorde/tab
  Añadir a tus favoritos
  Imprimir
Intro
--------------------------------------------------------------
---(b9)--------------7------------------------------------------
--------------------------------------------------5---6---7---
-----------------------------7------3------------------------

--------------------------------------------------------------------
---7---8---(b9)--(b9)--(b9)--(b9)--(b9)--(b9)--(b9)--(b9)--(b9)--(b9)--(b9)--(b9)--(b9)--(b9)---
--------------------------------------------------------------------
--------------------------------------------------------------------

--------------------------------------------------------------------
---(b9)--(b9)--7---7---7---7---7---7---7---7---7---7---7---7---7---7----
--------------------------------------------------------------------
--------------------------------------------------------------------

--------------------------------------------------------------------
---7---6------------------------------------------------------------
-----------7---7---7---7---7---7---7---7---7---7---7---7---7--------
--------------------------------------------------------------------

--------------------------------------------------------------------
--------------------------------------------------------------------
------7-------5-----------------------------------------------------
----------7----------5------------7---7---7---7---7---7---7---7-----

----------------------------------
-----------7---8---(b9)-------------
-------(b9)------------------7------
---7-/-----------------0----------

|--------------------------------------------|
|*------------------------------------------*|
|*------------------------------------------*|
|-----5---5---3---5---5---5---3---2---0------|

repeat twice, then

------------------------------------
------------------------5---4---5---
------------------------------------
----5---5---3---5---5---------------

~~~~~~~~~~~~~~~~~~~~~~~~~~~~~~~~~~~~~~~~~~~~~~~~~~~~~~~~~~~~~~~

Verse

|----------------------------------------------------|
|*--------------------------------------------------*|
|*--------------------------------------------------*|
|-----5---5---3------5---5------5---3------2---0-----|

play 3 times, then

-----------------------------------------------
-----------------------------------------------
--------------------------------------------5--
---5---5---3------5---5------5---3------5------

----------------------------------------
----------------------------------------
---7------5------x---7---7---5---4------
-------------------------------------7--

----------------------------------------
----------------------------------------
---7---7---5---x---7---5---5---4--------
-----------------------------------7----

---------------------------------------
---------------------------------------
---7---7---5---x---7---x---5---4-------
-----------------------------------7---
if you got the money honey...

---------------------------------------
---------------------------------------
---7---7---5---x---7---5---5---7-------
-----------------------------------7---

--------------------------------------------------------------------
--------------------------------------------------------------------
--------------------------------------5---5-----5---5---5-----------
---8---8---8---8---8---0---3------0-------------------------0-------

-------------------------------------------------------------------------
-------------------------------------------------------------------------
---7---7---5-----------------------------7---7---------------------------
---------------6---6------5---3---0--------------5---6---6---5---3---0---

--------------------------------
--------------------------------
--7---7-------------------------
----------5---6---6---5---3---0-

-------------------------------
-------------------------------
------7---5--------------------
--------------6---5---3---4----
I wanna watch you bleed

~~~~~~~~~~~~~~~~~~~~~~~~~~~~~~~~~~~~~~~~~~~~~~~~~~~~~~~~~~~~~~~~~~~~~~~~~~~

------------------------------------------------
---------------------------------------7---7----
------------------------------------------------
---6/7------6/7------6/7------6/7---------------
I wanna hear you scream!

~~~~~~~~~~~~~~~~~~~~~~~~~~~~~~~~~~~~~~~~~~~~~~~~~~~~~~~~~~~~~~~~~~~~~~~~~~~~

1st guitar solo

--------------------------------------------------------------
---------------------------------------------------5----------
-------4/5-----------7-------7-------4/5----------------------
---0---------0---0-------0-------0---------0---0-------2---0--

--------------------------------------------------------------
--------------------------------------------------------------
---0---4/5-----------7-------7-------4/5----------------------
-------------0---0-------0-------0---------0---0---3---0----

--------------------------------------------------------------
---------------------------------------------------5-------5--
---0---4/5-----------7-------7-------4/5----------------------
-------------0---0-------0-------0---------0---3-------3------

-------------------------------------------------------------
-------------------------------------------------------------
-------4/5-----------7----------4/5--------------------------
---0---------0---0-------0------------0---3---3---2---0------

~~~~~~~~~~~~~~~~~~~~~~~~~~~~~~~~~~~~~~~~~~~~~~~~~~~~~~~~~~~~~~~~~~~~~~~~~~~~

-------------------------------
-------------------------------
---7---5-----------------------
-----------6------5---3---0----
I'm gonna watch you bleed

~~~~~~~~~~~~~~~~~~~~~~~~~~~~~~~~~~~~~~~~~~~~~~~~~~~~~~~~~~~~~~~~~~~~~~~~~~~~

----------------------------------------------------------------------
---------------------------5------------------------------5-----------
---5---------------------------------5------------------------3---4---
-------------------3---3--------------------------3---3---------------

-----------------------------------------------------------------------
----------------3---4------5---5---------------------------------------
---5-------------------------------0---3---4---5---0---5---3---2-------
-------------------------------------------------------------------0---

--------------------------------------------------------------------
--------------------------------------------------------------------
--------------------------------------------------------------------
---3---3---3---3---3-----1------3---3---3---3---3----1--------------

--------------------------------------------------------------------
-----------------------------------------------5---5---5---5--------
--------------------------------------------------------------------
---3---3---3---3---3----1------5---5---5---5------------------------

--------------------------------------------------------------------
---------------------------------------------------5----------------
-------4/5-----------7-------7-------4/5----------------------------
---0---------0---0-------0-------0---------0---3-------2---0--------
Yeah!

--------------------------------------------------------------------
-------------------------------------------------5---5---4----------
-------4/5-----------7---7-----------4---5--------------------------
---0---------0---0-----------0---0-----------0---------------7---8--

~~~~~~~~~~~~~~~~~~~~~~~~~~~~~~~~~~~~~~~~~~~~~~~~~~~~~~~~~~~~~~~~~~~~~~~~~~~~~~

2nd guitar solo

|----------------------------------------------------------------------|
|*--------------------------------------------------------------------*|
|*--------------------------------------------------------------------*|
|-----(b9)--7---(b9)--7---(b9)--7---(b9)--7------5---7---5---7---5---7---0-----|

play twice, then

--------------------------------------------------------------------
--------------------------------------------------------------------
--------------------------------------------------------------------
------(b9)--7---(b9)--7---(b9)--7---(b9)--7------5---7---0---7---0---3---0--

--------------------------------------------------------------------
--------------------------------------------------------------------
------------------7-------------------------------------------------
------0---0---0-------0---0---0---0---0---0---0---0---4---5---7-----

------------------------------------------------------------------
--------------------------------------------------(b9)--7-----------
----------------------------------------------------------(b9)--7---
------7---7---0---7---5---6---7---0---7---0---7-------------------

-----------------------------------------------------------------
-----------------------------------------------------------------
------7---5-------5---7---0---7------7---5-----------------------
--------------7------------------------------7---4---5---6---7---

----------------------------------------------------------
------------------------------------------(b9)--------------
------------------------------------------------------7---
------7---7-------7---7---0---7---7---7-------0---7-------

-----------------------------------------------
----------------------------------2---3--------
-----------------------------------------------
------2---2---2---2---2---2---2----------------

-----------------------------------------------------------
---4---3---4---4---4---2-----------------------------------
---------------------------4---0------2------------2/------
-----------------------------------------------------------

-------------------------------------------------------------------
---(b9)--------------------------------------------------------------
-------------------------------------------------------------------
-------------------------------------------------------------------

---------------------------------------------
---------------------------------------------
---------------------------------------------
------0---0---2---2---3---3---2---3---4------

------------------------------------------------------------------
------------------------------------------------------------------
------------------------------------------------------------------
---3---3---2---2---3---3---4---5------5---4---4---5---5---6---7---

----------------------------------------------------------------
----------------------------------------------------------------
---7---7---7---7---6---6---6---5---5---4---4---3---3---2---2----
----------------------------------------------------------------

----------------------------------------------------------------
----------------------------------------------------------------
---7---7---7---7---6---6---6---5---5---4---4---3---3---2---2----
----------------------------------------------------------------

~~~~~~~~~~~~~~~~~~~~~~~~~~~~~~~~~~~~~~~~~~~~~~~~~~~~~~~~~~~~~~~~~~~~~~~~~~

|---------------------------------------------------------------------|
|*-------------------------------------------------------------------*|
|*---7---7---7---7---6---6---6---5---5---5---4---4---3---3---2---2---*|
|---------------------------------------------------------------------|

repeat 8 times

~~~~~~~~~~~~~~~~~~~~~~~~~~~~~~~~~~~~~~~~~~~~~~~~~~~~~~~~~~~~~~~~~~~~~~

------------------------------------------------------------------
------------------------------------------------------------------
------------------------------------------------------------------
------2---1---2---3---5---4---5---6---0---8---8---8---0---3---0---

-----------------------------------------------------------
-----------------------------------------------------------
---5---5---5---5---5---5---7---7---5-----------------------
---------------------------------------x---6---5---3---0---

---------------------------------------------------------------
---------------------------------------------------------------
---7---7---5-----------------------3---3---3---3---------------
---------------x---6---5---3---0-------------------0---3---0---

|------------------------------------------------------------|
|*----------------------------------------------------------*|
|*---5---5---5---5---5---0---7---7---5----------------------*|
|----------------------------------------x---6---5---3---0---|

play twice

-----------------------------------------------------------
-----------------------------------------------------------
---3---3---3---3---------------5---5---5---5---5---0-------
-------------------0---3---0-------------------------------

|-------------------------------------|
|*-----------------------------------*|
|*---7---7---5-----------------------*|
|----------------x---6---5---3---0----|

play twice

-----------------------------------------------------------
-----------------------------------------------------------
---3---3---3---3---3---------------5---5---5---5---5---0---
-----------------------0---3---0---------------------------

--------------------------------------------------------------------
--------------------------------------------------------------------
---7---7---7---5----------------------------------7-----------------
-------------------6---5---3---0---5---3---0------0-----------------
                It's gonna bring you down		   
AcordesyTabs.com © 2008 Acordes y Tablaturas para guitarra. Tabs and Chords for guitar. Aviso Legal - Contacto
El uso de este sitio está sujeto a la aceptación de los términos y condiciones (33 usuarios online)